» » »

Rea Chris, Road To Hell Tabs (ver.1)

Artists:  A B C D E F G H I J K L M N O P Q R S T U V W X Y Z # 

Road To Hell Tabs (ver.1)

Rea Chris Tabs
 Rating:
4/5 (4 votes)
Road To Hell lessons Tabs too difficult? Try these video lessons and learn fast
1
                Road to Hell - Chris Rea

The original is played in a funny tuning (sounds like open G to me) using a slide. I've tabbed it in standard tuning without a slide. Obviously it won't sound identical but it'll sound pretty close.

My Rig:
Squire Telecaster
Marshall 50 watt amp
Morley wah wah

My Favourite Bands:
Primus
Clutch
No Doubt


Intro
1 1/2 bars drums
Am until piano enters

| = bar line

Am   | Dm    | F  E7 | Am   play whole sequence x 2



Verse
Am   | Dm    | F  E7 | Am   x 2


C    | G     |  F    | E7


Am   | Dm    | F  E7 | Am  


Solo
Am   | Dm    | G     | C 
Am   | Dm    | F  E7 | Am


Verse
C  |  G  |  F  |  E7


Am   | Dm    | F  E7 | Am
Am   | Dm    | F  E7 | F  E7 | F  E7 | Am


Solo
Am   | Dm    | F  E7 | Am   x 6 until fade



Solo
b=bend string
/=slide
                                               
E||------------15----15--|--15----------------|
B||------------17----17--|--17----------------|
G||----------------------|--------------------|
D||----------------------|--------------------|
A||----------------------|--------------------|
E||----------------------|--------------------|


                                                   
--15--15----15----------|------------8------------|
--17--17----17----------|--------10-----10--13b---|
------------------------|-------------------------|
------------------------|-------------------------|
------------------------|-------------------------|
------------------------|-------------------------|


                                               
--8--------------------|--8/--10--------------|
-------------10---10---|--10/-12--------------|
-----------------------|----------------------|
-----------------------|----------------------|
-----------------------|----------------------|
-----------------------|----------------------|


                                                      
--10------------10--------|--15----15--15------15----|
--12--------12--------12--|--17----------------------|
--------------------------|--------------------------|
--------------------------|--------------------------|
--------------------------|--------------------------|
--------------------------|--------------------------|


                                                      
--15------15--------------|--15----------------------|
------------------16/-17--|------17/-15--------------|
--------------------------|--------------17----------|
--------------------------|--------------------------|
--------------------------|--------------------------|
--------------------------|--------------------------|


                                                   
--15--------------------|------------8------------|
------17----------------|--------10-----10--13b---|
------------17----------|-------------------------|
------------------------|-------------------------|
------------------------|-------------------------|
------------------------|-------------------------|


                                                        
--8----------------8--|--8----8----8----8----8b---8----|
-------------10-------|--------------------------------|
----------------------|--------------------------------|
----------------------|--------------------------------|
----------------------|--------------------------------|
----------------------|--------------------------------|


                                                              
--7----7----8----7--------|----------------------------------|
--------------------------|----------------------------10----|
--------------------------|-----------------10/---9----------|
--------------------------|------10----9---------------------|
--------------------------|----------------------------------|
--------------------------|----------------------------------|
            
Submit corrections

comments powered by Disqus
↑ Back to top | Rea Chris Tabs for Road To Hell. Lyrics for acoustic guitar and electric guitar. 1 Tablatures and chords are parodies/interpretations of the original songs. You may use it for private study, scholarship, research or language learning purposes only