» » »

Rebelde Tabs (ver.1)

Artists:  A B C D E F G H I J K L M N O P Q R S T U V W X Y Z # 

Rebelde Tabs (ver.1)

Rbd
Rating:
4/5 (5 votes)

Hard to play? Try these video lessons and learn fast.
                This is how you play la cancion de RBD "Rebelde"  Hope it works for ya.  Esta en Standard tuning.

Intro
e-------------------------------------|
b--33-3---33-3---00-0---11-1------1---|
g--00-0---22-2---00-0---00-0----0--0--| repeat 4x's
d-------------------------------------| 
a-----------------------33-3--3------3|
E--33-3---22-2---00-0-----------------|

(Listen to song for strumming)
e-2---0----|
b-3---1----|
g-2---0----|repeat twice
d-0---2----|
a-----3----|
E----------|


Chorus

e--------------------------------------------|
b--------------------------------------------|
g-------------77777777---00000000--77777777--|
d---55555555--77777777---22222222--77777777--|
a---55555555--55555555---22222222--55555555--|
E---33333333-------------00000000------------|


There you have it just put the partst together
            
Hard to play? Try these video lessons and learn fast. | Correct




comments powered by Disqus
↑ Back to top | Tablatures and chords are parodies/interpretations of the original songs. You may use it for private study, scholarship, research or language learning purposes only