>
 >
 >
Nuestro Amor

Nuestro Amor Guitar Tabs

Rbd - Nuestro Amor chords, tabs, tablatures, lyrics

Guitar lessons | Add/correct | Request | Top 50 tabs Artists:  A B C D E F G H I J K L M N O P Q R S T U V W X Y Z 0-9

Nuestro Amor Guitar Tabs – Rbd

CD, Sheet music, Poster

Do you like Nuestro Amor? Share with your friends now
Tabs
Intro:

e|----------------------------------|
B|------4---5---4-------4---5---4---|
G|----4---4---4---4---4---4---4---4-|
D|----------------------------------|
A|----------------------------------|
E|-0-----------------0--------------|

e|------------------------------------|
B|------4---5---4---------4---5---4---|
G|----4---4---4---4-----4---4---4---4-|
D|------------------------------------|
A|-4-----------------4----------------|
E|------------------------------------|

e|------------------------------------|
B|------4---5---4---------4---5---4---|
G|----4---4---4---4-----4---4---4---4-|
D|------------------------------------|
A|-0----------------0-----------------|
E|------------------------------------|

e|-------------------0---|
B|------4---5---4----4---|
G|----4---4---4---4--4---|
D|-------------------4---|
A|-2-----------------2---|
E|-----------------------|

Verse 1:Repeat Twice

e|----------------------------------|
B|------4---5---4-------4---5---4---|
G|----4---4---4---4---4---4---4---4-|
D|----------------------------------|
A|----------------------------------|
E|-0-----------------0--------------|

e|------------------------------------|
B|------4---5---4---------4---5---4---|
G|----4---4---4---4-----4---4---4---4-|
D|------------------------------------|
A|-4-----------------4----------------|
E|------------------------------------|

e|------------------------------------|
B|------4---5---4---------4---5---4---|
G|----4---4---4---4-----4---4---4---4-|
D|------------------------------------|
A|------------------------------------|
E|-2-----------------2----------------|

e|------------------------------------|
B|------4---5---4--------4---5---4----|
G|----4---4---4---4----4---4---4---4--|
D|------------------------------------|
A|-2-----------------2----------------|
E|------------------------------------|

Pre-Chorus:Reapeat twice

    Todo fue como un sueno
e|--0----------------2-----------|
B|--0----------------4-----------|
G|--0----------------4-----------|
D|--4----------------4-----------|
A|--4----------------2-----------|
E|--2----------------x-----------|

Chorus:

e|--x-x-x-x---x-x-x-x---x-x-x-x---x-x-x-x----|
B|--x-x-x-x---x-x-x-x---x-x-x-x---x-x-x-x----|
G|--x-x-x-x---6-6-6-6---2-2-2-2---4-4-4-4----|
D|--2-2-2-2---6-6-6-6---2-2-2-2---4-4-4-4----|
A|--2-2-2-2---4-4-4-4---0-0-0-0---2-2-2-2----|
E|--0-0-0-0---x-x-x-x---x-x-x-x---x-x-x-x----|

End Chorus:

e|--0-0-0-0----|
B|--0-0-0-0----|
G|--1-1-1-1----|
D|--2-2-2-2----|
A|--2-2-2-2----|
E|--0-0-0-0----|

Verse 2:


Intro:

e|----------------------------------|
B|------4---5---4-------4---5---4---|
G|----4---4---4---4---4---4---4---4-|
D|----------------------------------|
A|----------------------------------|
E|-0-----------------0--------------|

e|------------------------------------|
B|------4---5---4---------4---5---4---|
G|----4---4---4---4-----4---4---4---4-|
D|------------------------------------|
A|-4-----------------4----------------|
E|------------------------------------|

e|------------------------------------|
B|------4---5---4---------4---5---4---|
G|----4---4---4---4-----4---4---4---4-|
D|------------------------------------|
A|-0----------------0-----------------|
E|------------------------------------|

e|-------------------0---|
B|------4---5---4----4---|
G|----4---4---4---4--4---|
D|-------------------4---|
A|-2-----------------2---|
E|-----------------------|

Verse 1:Repeat Twice

e|----------------------------------|
B|------4---5---4-------4---5---4---|
G|----4---4---4---4---4---4---4---4-|
D|----------------------------------|
A|----------------------------------|
E|-0-----------------0--------------|

e|------------------------------------|
B|------4---5---4---------4---5---4---|
G|----4---4---4---4-----4---4---4---4-|
D|------------------------------------|
A|-4-----------------4----------------|
E|------------------------------------|

e|------------------------------------|
B|------4---5---4---------4---5---4---|
G|----4---4---4---4-----4---4---4---4-|
D|------------------------------------|
A|------------------------------------|
E|-2-----------------2----------------|

e|------------------------------------|
B|------4---5---4--------4---5---4----|
G|----4---4---4---4----4---4---4---4--|
D|------------------------------------|
A|-2-----------------2----------------|
E|------------------------------------|

Pre-Chorus:Reapeat twice

    Todo fue como un sueno
e|--0----------------2-----------|
B|--0----------------4-----------|
G|--0----------------4-----------|
D|--4----------------4-----------|
A|--4----------------2-----------|
E|--2----------------x-----------|

Chorus:

e|--x-x-x-x---x-x-x-x---x-x-x-x---x-x-x-x----|
B|--x-x-x-x---x-x-x-x---x-x-x-x---x-x-x-x----|
G|--x-x-x-x---6-6-6-6---2-2-2-2---4-4-4-4----|
D|--2-2-2-2---6-6-6-6---2-2-2-2---4-4-4-4----|
A|--2-2-2-2---4-4-4-4---0-0-0-0---2-2-2-2----|
E|--0-0-0-0---x-x-x-x---x-x-x-x---x-x-x-x----|

End Chorus:

e|--0-0-0-0----|
B|--0-0-0-0----|
G|--1-1-1-1----|
D|--2-2-2-2----|
A|--2-2-2-2----|
E|--0-0-0-0----|

Verse 2:Repeat Twice

e|--0-0-0-0-0-0-0--4-4-4-4-4-4-4--0-0-0-0-0-0-0--2-2-2-2-2-2-2-----|
B|--0-0-0-0-0-0-0--5-5-5-5-5-5-5--0-0-0-0-0-0-0--4-4-4-4-4-4-4-----|
G|--1-1-1-1-1-1-1--6-6-6-6-6-6-6--0-0-0-0-0-0-0--4-4-4-4-4-4-4-----|
D|--2-2-2-2-2-2-2--6-6-6-6-6-6-6--4-4-4-4-4-4-4--4-4-4-4-4-4-4-----|
A|--2-2-2-2-2-2-2--4-4-4-4-4-4-4--4-4-4-4-4-4-4--2-2-2-2-2-2-2-----|
E|--0-0-0-0-0-0-0--x-x-x-x-x-x-x--2-2-2-2-2-2-2--x-x-x-x-x-x-x-----|

Order:
Intro
Verse 1
Pre-Chorus
Chorus
End Chorus
Verse 2
Pre-Chorus
Chorus
Solo(Dont know it yet)
Chorus

And thats basicly it......easy and fun........also fun to play to girls that are RBD 
when I get the solo I'll put it up....Hope you enjoy!=)





Comments


Popular Rbd tabs & chords
Empezar Desde Cero Chords
No Digas Nada Chords
Salvame Chords
Si No Estas Aquí Chords
Una Cancion Chords
Rebelde Tabs
Y No Puedo Olvidarte Tabs
El Mundo Detras Ukulele
Este Corazon Ukulele
Salvame Ukulele


Song lyrics



↑ Back to top | Tablatures and chords are parodies/interpretations of the original songs. You may use it for private study, scholarship, research or language learning purposes only
© 2014 AZChords.com Contact us | Privacy policy | DMCA | Add/correct tabs | Request tabs | Top 50 tabs