» » »

School Sucks Bass tabs (ver.1)

Artists:  A B C D E F G H I J K L M N O P Q R S T U V W X Y Z # 

School Sucks Bass tabs (ver.1)

Rb32
Rating:
0/5 (0 votes)

Hard to play? Try these video lessons and learn fast.
                (1)
intro:
|-----------------------------------------|
|-----------------------------------------|
|-----------------------------------------|
| -3-5-3-5-3-5-3-5-3-5-3-4----------------|
verse: 
|-----------------------------------------------------------| 
|-----------------------------------------------------------|
|-5-5-5-5-5-5-5-5-----------------6-6-6-6-6-6-6-6-----------|
|----------------7-7-7-7-7-7-7-7----------------------------| 
chorus:
|-----------------------------------------------------------| 
|-----------------------------------------------------------| 
|-5-5-5-5-5-5-5-5-5-----------------------------------------| 
|-----------------------------------------------------------| 
ending bit: 
|-----------------------------------------------------------| 
|-----------------------------------------------------------| 
|------------------8-8-8-8-8-8-8-8--------------------------| 
|-7-7-7-7-7-7-7-7-------------------9-9-9-9-9-9-------------|
            
Hard to play? Try these video lessons and learn fast. | Correct




comments powered by Disqus
↑ Back to top | Tablatures and chords are parodies/interpretations of the original songs. You may use it for private study, scholarship, research or language learning purposes only