» » »

Stinger Bass tabs (ver.1)

Artists:  A B C D E F G H I J K L M N O P Q R S T U V W X Y Z # 

Stinger Bass tabs (ver.1)

Razorlight
Rating:
0/5 (0 votes)

Tabs too difficult? Try these video lessons and learn fast.
                Intro
G|---------------------------------|
D|---------------------------------|
A|----7-5-----------3/5--3---------|
E|5~------3~----3-5--------1--3-1-3|

Verse
G|---------------------------|
D|---------------------------|
A|--------------5----5-------|
E|5---5-3----35--------1--3--|

Pre-Chorus
G|---------------------------------------------|
D|3--33---55---55------------------------------|
A|--------------------------------555555-------|
E|--------------------555555333333------1111111|

Chorus
G|------------------------|
D|------------------------|
A|-----------3555333------|
E|55555533335-------111133|

"If i had to choose between me and you..." 1ST TIME
G|--5-------5------7-----------|
D|3---3-3-3---3--5---5-5--5-5-5|
A|-----------------------------|
E|-----------------------------|

2nd Time (after second chorus)
G|------------------------|
D|333333333333555555555555|
A|------------------------|
E|------------------------|

Outro
G|--------------------------------------------------|
D|--------------------------------------------------|
A|----------------------35-5555-3-3333-5-5555-7-7777|
E|5-5555-5-55553-3333-35----------------------------|

G|--------------------------------------------------|
D|--------------------------------------------------|
A|----------------------35-5555-3-3333--------------|
E|5-5555-5-55553-3333-35---------------1-1111-3-3333|

G|------------------------------------------------------------|
D|------------------------------------------------------------|
A|------/222222/333333/5555555------/222222/333333/555555555--|
E|555555----------------------555555------------------------5\|
            
Tabs too difficult? Try these video lessons and learn fast.


comments powered by Disqus
↑ Back to top | Tablatures and chords are parodies/interpretations of the original songs. You may use it for private study, scholarship, research or language learning purposes only