» » »

Razorlight, Hostage Of Love Bass tabs (ver.1)

Artists:  A B C D E F G H I J K L M N O P Q R S T U V W X Y Z # 

Hostage Of Love Bass tabs (ver.1)

Razorlight Tabs
Rating:
0/5 (0 votes)
Hostage Of Love lessons Tabs too difficult? Try these video lessons and learn fast
                Great new song from Mr Borrell and co.

Bass comes in after first verse with...
G|-------------246--------------------|
D|------245--------------245--4-2-----|
A|2-4-5------------2-4-5----------5-4-|
E|------------------------------------|

Verse
G|-----------------------------|
D|-----------------------------|
A|2~---------------------------|
E|--------5~------3~----------5|x2

G|-------------------------------------------------|
D|-------------------------------------5~----------|
A|2~-----5~--------------2~-----5~-----------------|
E|--------------3~---------------------------------|

G|----------------------------------------------------------------|
D|------------------------55555555------------------------55555555|
A|2222------------2222------------22225555--------22225555--------|
E|----555533333335----5555----------------33333335----------------|

Chorus
G|-------------------------|
D|------4-4-4--------------|
A|5-5-55------2-2-22-2-2-24|
E|-------------------------|x2

G|----------------------------|
D|----------------------------|
A|-------5-5-55---------------|
E|3-3-33--------5-5-55-5-5-55-|x2

After Chorus
G|-----------------------------------|
D|------245-------------245---4-2----|
A|2-4-5-----------2-4-5-----------5-4|
E|-----------------------------------|

Verse

Chorus

Play after chorus piece until end
            
Submit corrections

comments powered by Disqus
↑ Back to top | Razorlight Bass for Hostage Of Love. Lyrics for acoustic guitar and electric guitar. Tablatures and chords are parodies/interpretations of the original songs. You may use it for private study, scholarship, research or language learning purposes only