» » »

Back To The Start Bass tabs (ver.1)

Artists:  A B C D E F G H I J K L M N O P Q R S T U V W X Y Z # 

Back To The Start Bass tabs (ver.1)

Razorlight
Rating:
5/5 (1 vote)

Hard to play? Try these video lessons and learn fast.
                -------------------------------------------------------------------------------
-------------------------------------------------------------------------------


Tuning: Standard EADG

Intro
'Oh oh oooh oh ohhh'
G|---------|-------|--------|-------|
D|---11----|-------|--------|-------|
A|-9-----9-|-7---7-|-5----5-|-7---7-|
E|---------|---7---|---5----|---7---|

G|---------|-------|--------|---------|
D|---11----|-------|--------|----7-6--|
A|/9-----9-|-7---7-|-5----5-|-7-------|
E|---------|---7---|---5----|---------|

G|---------|-------|--------|-------|
D|---11----|-------|---7----|-------|
A|/9-----9-|-7---7-|-5----5-|-7---7-|
E|---------|---7---|--------|---7---|

G|---------|-------|--------|---------|
D|---11----|-------|--------|---------|
A|/9-----9-|-7---7-|-5----5-|-7-/--12-|
E|---------|---7---|---5----|---------|

Chorus
'Back to the start...'
G|---------------|-------------------|
D|---------------|-------------------|
A|-9-9-9---7-7-7-|-9-9-9---7-7-7---7-|
E|---------------|---------------9---| X2

'An I don't know why, I feel this way...'
G|-----------------|-----------------|-----------------|-----------------|
D|-----------------|-----------------|-----------------|-----------------|
A|-5-5-5-5-5-5-5-5-|-5-5-5-5-5-5-5-5-|-7-7-7-7-7-7-7-7-|-7-7-7-7-7-7-7-7-|
E|-----------------|-----------------|-----------------|-----------------| X2

'I go back to the start...'
G|-----------------|-----------------|-----------------|-----------------|
D|-----------------|-----------------|-----------------|-----------------|
A|-5-5-5-5-5-5-5-5-|-5-5-4-4---------|-7-7-7-7-7-7-7-7-|-7-7-7-7-7-7-7-7-|
E|-----------------|---------7-7-5-5-|-----------------|-----------------| 

Link
G|---------------|
D|---------------|
A|-9-9-9---7-7-7-|
E|---------------| X2

Verse
'Mary got the message it was Monday morning five o'clock...
G|-----------|-----------|-----------|-----------|
D|-----------|-----------|-----------|-----------|
A|-9--9----9-|-7--7----7-|-----------|----4--5-7-|
E|-----------|-----------|-5--5----5-|-5---------| X2

'Walk into the bedroom...'
G|-----------------|----------------|---|
D|-----------------|----------------|---|
A|-5-5-5-5-5-5-5-5-|-5-5-5-5-5-7-5--|---|
E|-----------------|----------------|-5-|

'I can take it easy...'
G|-----------------|-----------------|-----------------|-----------------|
D|-----------------|-----------------|-----------------|-----------------|
A|-5-5-5-5-5-5-5-5-|-5-5-5-5-5-5-5-5-|-7-7-7-7-7-7-7-7-|-7-7-7-7-7-7-7-7-|
E|-----------------|-----------------|-----------------|-----------------|

Chorus
'Back to the start...'
G|---------------|-------------------|
D|---------------|-------------------|
A|-9-9-9---7-7-7-|-9-9-9---7-7-7---7-|
E|---------------|---------------9---| X2

'An I don't know why, I feel this way...'
G|-----------------|-----------------|-----------------|-----------------|
D|-----------------|-----------------|-----------------|-----------------|
A|-5-5-5-5-5-5-5-5-|-5-5-5-5-5-5-5-5-|-7-7-7-7-7-7-7-7-|-7-7-7-7-7-7-7-7-|
E|-----------------|-----------------|-----------------|-----------------| X2

'I go back to the start...'
G|-----------------|-----------------|-----------------|-----------------|
D|-----------------|-----------------|-----------------|-----------------|
A|-5-5-5-5-5-5-5-5-|-5-5-4-4---------|-7-7-7-7-7-7-7-7-|-7-7-7-7-7-7-7-7-|
E|-----------------|---------7-7-5-5-|-----------------|-----------------|

Bass rest for 2 bars.

'Back to the start...'
G|---------------|---------------------|
D|---------------|---------------------|
A|-9-9-9---7-7-7-|-9-9-9---9-7-5-------|
E|---------------|---------------9-7-5-| <--(small fill)

'Still I don't know why, I feel this way...'
G|-----------------|-----------------|-----------------|-----------------|
D|-----------------|-----------------|-----------------|-----------------|
A|-5-5-5-5-5-5-5-5-|-5-5-5-5-5-5-5-5-|-7-7-7-7-7-7-7-7-|-7-7-7-7-7-7-7-7-|
E|-----------------|-----------------|-----------------|-----------------| X2

'I go back to the start...'
G|-----------------|-----------------|-----------------|-----------------|
D|-----------------|-----------------|-----------------|-----------------|
A|-5-5-5-5-5-5-5-5-|-5-5-4-4---------|-7-7-7-7-7-7-7-7-|-7-7-7-7-7-7-7-7-|
E|-----------------|---------7-7-5-5-|-----------------|-----------------|

Guitar Bridge

G|----------|----------|----------|----------|
D|----------|----------|----------|----------|
A|-9----9-9-|-7----7-7-|-5----5-5-|-7----7-7-|
E|----------|----------|----------|----------| X2

G|----------|----------|-------------|----------|
D|----------|----------|-------------|----------|
A|-9----9-9-|-5----5-5-|-12----12-12-|-7----7-7-|
E|----------|----------|-------------|----------| X2

Outro
'Oh oh oooh oh ohhh'
G|----------------|----------------|----------------|----------------|
D|----------------|----------------|----------------|----------------|
A|-9--9-9-9-9-9-9-|-7--7-7-7-7-7-7-|-5--5-5-5-5-5-5-|-7--7-7-----5-7-|
E|----------------|----------------|----------------|--------5-7-----| X4

'Back to the...'
G|---------------|---------------|
D|---------------|---------------|
A|-9-9-9---7-7-7-|-9-9-7-9-9-7-9-|
E|---------------|---------------|

Rate me. 

| /  slide up
| \  slide down
| h  hammer-on
| p  pull-off
| ~  vibrato
| +  harmonic
| x  Mute note
===============================================================================
            
Hard to play? Try these video lessons and learn fast. | Correct




comments powered by Disqus
↑ Back to top | Tablatures and chords are parodies/interpretations of the original songs. You may use it for private study, scholarship, research or language learning purposes only