» » »

America Tabs (ver.2)

Artists:  A B C D E F G H I J K L M N O P Q R S T U V W X Y Z # 

America Tabs (ver.2)

Razorlight
Rating:
4/5 (32 votes)

Hard to play? Try these video lessons and learn fast.
                Razorlight - America


1st guitar

Capo 7th fret

chord shapes relative to capo:

       G              A*             D              A

   e a d g b e    e a d g b e    e a d g b e    e a d g b e
   - - - - - -    - - - - - -    - - - - - -    - - - - - -
   7 7 7 7 7 7    7 7 7 7 7 7    7 7 7 7 7 7    7 7 7 7 7 7
   - - - - - -    - - - - - -    - - - - - -    - - - - - -
   x | | | 8 |    x | | | | |    | | | | | |    x x | | | |
   - - - - - -    - - - - - -    - - - - - -    - - - - - -
   x | 9 | | |    x | | | | |    | 9 | | | |    x x | 9 | 9
   - - - - - -    - - - - - -    - - - - - -    - - - - - -
   x10 | | | |    x | | |10 |   10 | | | |10    x x | |10 |
   - - - - - -    - - - - - -    - - - - - -    - - - - - -
   x | | | | |    x |11 | | |    | | | | | |    x x | | | |
   - - - - - -    - - - - - -    - - - - - -    - - - - - -
   x | | | | |    x12 | | | |    | | | | | |    x x | | | |
   - - - - - -    - - - - - -    - - - - - -    - - - - - -


intro/verse

play all parts once through for intro, then verse uses some variations but mainly the 
and second parts.

part 1
       G         A*           D              G
   e-------------------------------------------------|
   b-------------------10----------------------------|
   g--------7--------------------9p7-9p7----------7--|
   d------9---------11----11--------------7-----9----|
   a---10-----10/12-----------9--------------10------|
   e-------------------------------------------------|

part 2
       G         A*           D              G
   e-------------------------------------------------|
   b--------8----------10----------------------------|
   g------------------------------11-9--7---------7--|
   d------9---------11----11--------------7-----9----|
   a---10-----10/12-----------9-9------------10------|
   e-------------------------------------------------|

part 3
       G         A            D              G
   e--------10-7-------9-----------7-----------------|
   b----------------------10----------10---7h8-------|
   g------7---------9--------------------------------|
   d-------------7--------------------------------9--|
   a---10---------------------9-9--------------10----|
   e-------------------------------------------------|

part 4
       G         A*           D              G
   e-------------------------------9--10--7----------|
   b-------------------------------------------------|
   g--------7----------7--------------------------7--|
   d------9---------11---11---------------------9----|
   a---10-----10/12-----------9-9------------10------|
   e-------------------------------------------------|

Chorus

start off with picking the same chord sequence as before for the first 2 lines of 
then guitar one strums the
high chords and guitar 2 strums the chords below for the second 2 lines.


2nd guitar chords

       G              A              D

   e a d g b e    e a d g b e    e a d g b e
   - - - - - -    - - - - - -    - - - - - -
   | | | | | |    x | | | | |    x x | | | |
   - - - - - -    - - - - - -    - - - - - -
   | 2 | | | |    x | 2 2 2 |    x x | 2 | 2
   - - - - - -    - - - - - -    - - - - - -
   3 | | | | 3    x | | | | |    x x | | 3 |
   - - - - - -    - - - - - -    - - - - - -
   | | | | | |    x | | | | |    x x | | | |
   - - - - - -    - - - - - -    - - - - - -
            
Hard to play? Try these video lessons and learn fast. | Correct




comments powered by Disqus
↑ Back to top | Tablatures and chords are parodies/interpretations of the original songs. You may use it for private study, scholarship, research or language learning purposes only