» » »

Wakasan Tabs (ver.2)

Artists:  A B C D E F G H I J K L M N O P Q R S T U V W X Y Z # 

Wakasan Tabs (ver.2)

Razorback
Rating:
0/5 (0 votes)

Hard to play? Try these video lessons and learn fast.
                Tuning: Standard tuning

“Pakinggan nyong maigi,tama tong tab k n to mga (80-90%) cguro..hehe”

Intro1:
E----------------------------------------------|
B----------------------------------------------|
G---5h7 7-7-7--7—7h8-5-7-----------------------|
D—---------------------------------------------|
A----------------------------------------------|
E----------------------------------------------|

E----------------------------------------------|
B----------------------------------------------|
G---5h7 7-7-7--7—7h8-5-7--11b12r11-------------|
D—---------------------------------------------|
A----------------------------------------------|
E----------------------------------------------|

E----------------------------------------------|
B----------------------------------------------|
G---5h7 7-7-7--7—7h8-5-7-----------------------|
D—---------------------------------------------|
A----------------------------------------------|
E----------------------------------------------|

E----------------------------------------------|
B----------------------------------------------|
G---5h7 7-7-7--7—5h7—4h5p4---------------------|
D—-----------------------------7---------------|
A----------------------------------------------|
E----------------------------------------------|

Intro2/Verse:
Sumigaw ang bathala…..
E----------------------------------------------|
B----------------------------------------------|
G-5/7-7-7-7--7-7/8--5--7-----------------------|
D—---------------------------------------------|
A-3/5-5-5-5--5-5/6--3--5-----------------------|
E----------------------------------------------|

E----------------------------------------------|
B----------------------------------------------|
G-5/7-7-7-7--7-7/8--5--7---11b12r11------------|
D—---------------------------------------------|
A-3/5-5-5-5--5-5/6--3--5-----------------------|
E----------------------------------------------|

E----------------------------------------------|
B----------------------------------------------|
G-5/7-7-7-7--7-7/8--5--7-----------------------|
D—---------------------------------------------|
A-3/5-5-5-5--5-5/6--3--5-----------------------|
E----------------------------------------------|

E----------------------------------------------|
B----------------------------------------------|
G-5/7-7-7-7--7---5h7—4h5p4---------------------|
D—---------------------------7-----------------|
A-3/5-5-5-5--5---------------------------------|
E----------------------------------------------|

Refrain:
E----------------------------------------------|
B----------------------------------------------|
G-10-10-10---9-9-9---7-7-7----5-5-5------------|
D—---------------------------------------------|
A--8--8--8---7-7-7---5-5-5----3-3-3------------|
E----------------------------------------------|

E----------------------------------------------|
B----------------------------------------------|
G-12-12-12---10-10-10--9-9-9---7-7-7-----------|
D—---------------------------------------------|
A-10-10-10---8--8--8---7-7-7---5-5-5-----------|
E----------------------------------------------|

E----------------------------------------------|
B----------------------------------------------|
G-5/7-7-7-7--7-7/8--5--7-----------------------|
D—---------------------------------------------|
A-3/5-5-5-5--5-5/6--3--5-----------------------|
E----------------------------------------------|

E----------------------------------------------|
B----------------------------------------------|
G-5/7-7-7-7--7-7/8--5--7-----------------------|
D—---------------------------------------------|
A-3/5-5-5-5--5-5/6--3--5-----------------------|
E----------------------------------------------|

Chorus:
E----------------------------------------------|
B----------------------------------------------|
G-5/7-7-7-7--7-7/8--5--7-----------------------|
D—---------------------------------------------|
A-3/5-5-5-5--5-5/6--3--5-----------------------|
E----------------------------------------------|

E----------------------------------------------|
B----------------------------------------------|
G---------5------------------------------------|
D---------5-------3-------5--------------------|
A---------3-------3-------5--------------------|
E-----------------1-------3--------------------|
            
Hard to play? Try these video lessons and learn fast. | Correct




comments powered by Disqus
↑ Back to top | Tablatures and chords are parodies/interpretations of the original songs. You may use it for private study, scholarship, research or language learning purposes only