» » »

Tikman Ang Ulan Tabs (ver.2)

Artists:  A B C D E F G H I J K L M N O P Q R S T U V W X Y Z # 

Tikman Ang Ulan Tabs (ver.2)

Razorback
Rating:
5/5 (2 votes)

Tabs too difficult? Try these video lessons and learn fast.
                Song         : Tikman Ang Ulan
Band         : Razorback
Tuning       : Flat Tuning


98% correct!

Solo : (01:23-01:51)

With wah-wah effects..
eb---------------------------------------------------------------------------|
bb-12-15p12-------15p12-------15p12------15p12-------15p12-------15p12-------|
gb----------14b16-------14b16------14b16-------14b16-------14b16-------14b16-|
db---------------------------------------------------------------------------|
ab---------------------------------------------------------------------------|
Eb---------------------------------------------------------------------------|

eb--------------------------------------------------------------------------|
bb-15p12-------15p12-15p12-------15p12-------15p12-------15p12-15p12-15b17~-|
gb-------14b16-------------14b16-------14b16-------14b16--------------------|
db--------------------------------------------------------------------------|
ab--------------------------------------------------------------------------|
Eb--------------------------------------------------------------------------|

eb------------------------------------------------------------15-------------------------------------|
bb-15-17--15-17--15-15b17~--15p14p12--------------------12-15----17~-----------------------15-15b17~-|
gb-----------------------------------16p15p14-----12-14---------------14p12p11----14-12-16-----------|
db--------------------------------------------14~------------------------------14--------------------|
ab---------------------------------------------------------------------------------------------------|
Eb---------------------------------------------------------------------------------------------------|

eb--------------------------------------------------------------------------|
bb--------------------------3-----5-----8-----10-----8-----10----12-----15~-|
gb-222222222222222222-------------------------------------------------------|
db--------------------------------------------------------------------------|
ab--------------------------------------------------------------------------|
Eb--------------------------------------------------------------------------|
 |-listen to the song--|
 |-for the exact times-|
 |-----of picking------|

eb-17b19-15-12-------15----------------------------------------------------------------------------------|
bb-------------15h17----17p15-----------------15-17p15---------------------------------------------------|
gb----------------------------16p14-12-14-12~----------14p16-14p12----14-14b16-16p14-14p12---------------|
db-----------------------------------------------------------------14----------------------14--12-12-h5~-|
ab-------------------------------------------------------------------------------------------------------|
Eb-------------------------------------------------------------------------------------------------------|

Guitar Legend :
p = pull
h = hammer
b = bend
~ = vibrato
            
Tabs too difficult? Try these video lessons and learn fast.


comments powered by Disqus
↑ Back to top | Tablatures and chords are parodies/interpretations of the original songs. You may use it for private study, scholarship, research or language learning purposes only