» » »

Razorback, Munting Paraiso Tabs (ver.2)

Artists:  A B C D E F G H I J K L M N O P Q R S T U V W X Y Z # 

Munting Paraiso Tabs (ver.2)

Razorback Tabs
 Rating:
4/5 (4 votes)
Munting Paraiso lessons Tabs too difficult? Try these video lessons and learn fast
1
                 MUNTING PARAISO BY: RAZORBACK

Im sorry to the one transcribed this tab earlier but ur tab sucks man,
I guess this is the right one; I saw them do this live
try this out guys...

 Intro is done w/ the help of some weird effects....

Post intro riff:
PM = Palm Mute

  PM   PM  PM  PM     PM PM
e|----------------------------------------------|
B|----------------------------------------------|
G|-------5---4----4h5-------5-------------------|
D|-0---0---0---0------0--0----3h5-5-5-3-0-------|
A|----------------------------------------------|
E|----------------------------------------------|

PM   PM  PM  PM     PM PM
e|-----------------------------------------------------|
B|-----------------------------------------------------|
G|-------5---4----4h5-------5--------------------------|
D|-0---0---0---0------0--0----3h5-5-5-3-0--------------|
A|-----------------------------------------3h5-5-5-3-0-|
E|-----------------------------------------------------|


main Riff:

 Pagkakita ko sayo...
Do the open D string w/ alternate picking style palm muting
     PM ---------|                        PM ----------|
e|-------------------------------------------------------------------------------------|
B|-------------------------------------------------------------------------------------|
G|-------------------------------------------------------------------------------------|
D|---0-0-0-0-0-0-0--------3h5-5-5-3-0-------0-0-0-0-0-0------3h5-5-5-3-0---------------|
A|-----------------------------------------------------------------------3h5-5-5-3-0---|
E|-------------------------------------------------------------------------------------|

 nadapaka....
e|-------------------------------------------------------|
B|-------------------------------------------------------|
G|--------3----------------------------3---------5-------|
D|--5-----3-----3--------3p5p0---5-----3----3----5-------|
A|--5-----1-----3---3p4p5--------5-----1----3----3-------|
E|--3-----------1----------------3----------1------------|

e|-------------------------------------------------------|
B|-------------------------------------------------------|
G|--------3----------------------------3---------3-------|
D|--5-----3-----3--------3p5p0---5-----3----3----3-------|
A|--5-----1-----3---3p4p5--------5-----1----3----1-------|
E|--3-----------1----------------3----------1------------|

---------------------------------------------------------------------------|
---------------------------------------------------------------------------|
 Peace! Rock On!!!
            
Submit corrections

comments powered by Disqus
↑ Back to top | Razorback Tabs for Munting Paraiso. Lyrics for acoustic guitar and electric guitar. 1 Tablatures and chords are parodies/interpretations of the original songs. You may use it for private study, scholarship, research or language learning purposes only