» » »

Razorback, Giyang Tabs (ver.1)

Artists:  A B C D E F G H I J K L M N O P Q R S T U V W X Y Z # 

Giyang Tabs (ver.1)

Razorback Tabs
 Rating:
4.4/5 (7 votes)
Giyang lessons Tabs too difficult? Try these video lessons and learn fast
                --------------------------------------------------------------------------
				 Giyang 
				Razorback
--------------------------------------------------------------------------

any comments guys just let me know...  enjoy!
Tuning: standard

intro:
e|------------------------------------------------------------------|
B|------------------------------------------------------------------|
G|---7--5b---------7--5b------------8-7-5-7-5-----------------------|
D|---7-------------7----------------8-7-5-7-5-----------------------|   4x
A|-0-------------0-----------------0--------------------------------|
E|------------------------------------------------------------------| 
stanza: its 2 guitars...

guitar1:

e|------------------------------------------------------------------|
B|------------------------------------------------------------------|
G|-----------------------------------7-5-7-5------------------------|
D|--5---7-7--x----5---7-7-x----5---7-7-5-7-5------------------------|  6x
A|--5---7-7--x----5---7-7-x----5---7-5-3-5-3------------------------|
E|--3---5-5--x----3---5-5-x----3---5--------------------------------|

guitar 2:
e|------------------------------------------------------------------|
B|------------------------------------------------------------------|
G|---7--5b---------7--5b------------8-7-5-7-5-----------------------|
D|---7-------------7----------------8-7-5-7-5-----------------------|   6x
A|-0-------------0-----------------0--------------------------------|
E|------------------------------------------------------------------| 

chorus:
e|-------------|------------|-------------|-------------------------|
B|-------------|------------|-------------|-------------------------|
G|-------------|------5-----|-------7-----|------------------5--2---|
D|-------7-----|------5-----|-------7-----|-----5-------------------|  4x
A|-------7-----|------3-----|-------5-----|-----5-------3-----------|
E|-------5-----|------------|-------------|-----3---3h5---5---------|

stanza:
guitar1:

e|------------------------------------------------------------------|
B|------------------------------------------------------------------|
G|-----------------------------------7-5-7-5------------------------|
D|--5---7-7--x----5---7-7-x----5---7-7-5-7-5------------------------|  6x
A|--5---7-7--x----5---7-7-x----5---7-5-3-5-3------------------------|
E|--3---5-5--x----3---5-5-x----3---5--------------------------------|

guitar 2:
e|------------------------------------------------------------------|
B|------------------------------------------------------------------|
G|---7--5b---------7--5b------------8-7-5-7-5-----------------------|
D|---7-------------7----------------8-7-5-7-5-----------------------|   6x
A|-0-------------0-----------------0--------------------------------|
E|------------------------------------------------------------------| 

chorus:
e|-------------|------------|-------------|-------------------------|
B|-------------|------------|-------------|-------------------------|
G|-------------|------5-----|-------7-----|------------------5--2---|
D|-------7-----|------5-----|-------7-----|-----5-------------------|  8x
A|-------7-----|------3-----|-------5-----|-----5-------3-----------|
E|-------5-----|------------|-------------|-----3---3h5---5---------|

adlib part:
e|------------------------------|-----------------------------------|
B|------------------------------|-----------------------------------|
G|------------------------------|-----------------------------------|
D|------------------------------|----------------------------7-5----|  2x
A|---7--5-7----3-5-3------------|-----7--5-7----3-5-3---------------|
E|-5-------------------5-3-5-3--|---5-------------------5-3---------|

guitar1 
e|------------------------------------------------------------------|
B|------------------------------------------------------------------|
G|-----------------------------------7-5-7-5------------------------|
D|--5---7-7--x----5---7-7-x----5---7-7-5-7-5------------------------|  4x
A|--5---7-7--x----5---7-7-x----5---7-5-3-5-3------------------------|
E|--3---5-5--x----3---5-5-x----3---5--------------------------------|

guitar 2:
e|------------------------------------------------------------------|
B|------------------------------------------------------------------|
G|---7--5b---------7--5b------------8-7-5-7-5-----------------------|
D|---7-------------7----------------8-7-5-7-5-----------------------|   4x
A|-0-------------0-----------------0--------------------------------|
E|------------------------------------------------------------------| 

stanza:
chorus:
outro:

e|------------------------------------------------------------------|
B|------------------------------------------------------------------|
G|---7--5b---------7--5b------------8-7-5-7-5-----------------------|
D|---7-------------7----------------8-7-5-7-5-----------------------|   
A|-0-------------0-----------------0--------------------------------|
E|------------------------------------------------------------------| 

e|-------------|------------|-------------|-------------|
B|-------------|------------|-------------|-------------|
G|-------------|------5-----|-------7-----|-------------|
D|-------7-----|------5-----|-------7-----|-----5-------|   end.....
A|-------7-----|------3-----|-------5-----|-----5-------|
E|-------5-----|------------|-------------|-----3-------|

don't forget to vote... thanks!
hey freongang this is for f**k'n you! peace out. 

| h  hammer-on
| p  pull-off
| b  bend
| x  Mute note
===========================================================================
            
Submit corrections

comments powered by Disqus
↑ Back to top | Razorback Tabs for Giyang. Lyrics for acoustic guitar and electric guitar. Tablatures and chords are parodies/interpretations of the original songs. You may use it for private study, scholarship, research or language learning purposes only