» » »

Hold You In My Arms Tabs (ver.1)

Artists:  A B C D E F G H I J K L M N O P Q R S T U V W X Y Z # 

Hold You In My Arms Tabs (ver.1)

Ray Lamontagne
Rating:
0/5 (0 votes)

Hard to play? Try these video lessons and learn fast.
                Intro:
--------------------------------------------|
-------3-----------------------3---3/5------|
-0-2-4----2-0------0-2---0-2-4---4------0---|
--------------2--2--------------------------|
--------------------------------------------|
--------------------------------------------|

Verse:

-3---2--0--0--2--3--2----------------------------------|
-0---3--0--1--1--0--1----------------------------------|
-0---4--0--0--2--0--2----------------------------------|
-0---4--2--2--0--0--0----------------------------------|
-2---2--2--3-----2-------------------------------------|
-3------0--------3-------------------------------------|

Chorus:

-0--3--0--1-0----2--2--3---2-2--------------------------|
-0--0--1--1-1----3--1--0---3-1--------------------------|
-0--0--0--2-0----2--2--0---2-2--------------------------|
-2--0--2--3-2----0--0--0---0-0--------------------------|
-2--2--3--3-3----------2--------------------------------|
-0--3-----1------------3--------------------------------|

Solo:

-0--2--0--0--2--2------------------------------------|
-1--3--0--1--3--1------------------------------------|
-2--4--0--0--2--2------------------------------------|
-2--4--2--2--0--0------------------------------------|
-0--2--2--3------------------------------------------|
-------0---------------------------------------------|
            
Hard to play? Try these video lessons and learn fast. | Correct




comments powered by Disqus
↑ Back to top | Tablatures and chords are parodies/interpretations of the original songs. You may use it for private study, scholarship, research or language learning purposes only