>
 >
What'd I Say 2

What'd I Say 2 Guitar Tabs

Ray Charles - What'd I Say 2 chords, tabs, tablatures, lyrics

Guitar lessons | Add/correct | Request | Top 50 tabs Artists:  A B C D E F G H I J K L M N O P Q R S T U V W X Y Z 0-9

What'd I Say 2 Guitar Tabs – Ray Charles

CD, Sheet music, Poster

Do you like What'd I Say 2? Share with your friends now
TabsTabs v2Tabs v3
NOTE: I filled in everything that was left out in the other versions
      Mostly put down the chords


  F    Eb    Bb    Ab    C7    FM    E7
|-5-| |-3-| |-1-| |-x-| |-0-| |-1-| |-0-|
|-6-| |-4-| |-3-| |-1-| |-1-| |-1-| |-0-|
|-5-| |-3-| |-3-| |-1-| |-3-| |-2-| |-1-|
|-3-| |-1-| |-3-| |-1-| |-2-| |-3-| |-0-|
|-x-| |-x-| |-1-| |-x-| |-3-| |-1-| |-2-|
|-x-| |-x-| |-x-| |-x-| |-x-| |-1-| |-x-|




  1  &  2  &  3  &  4  &  5  &  6  &  7  &  8  &  |

        F     Eb F        F     F     Eb F
|-------5-----3/-5--------5-----5-----3/-5--------| x2
|-------6-----4/-6--------6-----6-----4/-6--------|
|-------5-----3/-5--------5-----5-----3/-5--------|
|-------3-----1/-3--------3-----3-----1/-3--------|
|-------x-----x-----------x-----x-----x-----------|
|-------x-----x-----------x-----x-----x-----------|

        Bb    Ab Bb       Bb    Bb    Ab Bb
|-------1-----0/-1--------1-----1-----0/-1--------|
|-------3-----1/-3--------3-----3-----1/-3--------|
|-------3-----1/-3--------3-----3-----1/-3--------|
|-------3-----1/-3--------3-----3-----1/-3--------|
|-------1-----0/-1--------1-----1-----0/-1--------|
|-------x-----x-----------x-----x-----x-----------|

        F     Eb F        F     F     Eb F
|-------5-----3/-5--------5-----5-----3/-5--------|
|-------6-----4/-6--------6-----6-----4/-6--------|
|-------5-----3/-5--------5-----5-----3/-5--------|
|-------3-----1/-3--------3-----3-----1/-3--------|
|-------x-----x-----------x-----x-----x-----------|
|-------x-----x-----------x-----x-----x-----------|

        C7    C7 C7       Bb    Bb    Bb Bb
|-------0-----0--0--------1-----1-----1--1--------|
|-------1-----1--1--------3-----3-----3--3--------|
|-------3-----3--3--------3-----3-----3--3--------|
|-------2-----2--2--------3-----3-----3--3--------|
|-------3-----3--3--------1-----1-----1--1--------|
|-------x-----x--x--------x-----x-----x--x--------|

  FM    E7    C7    E7    C7    C7
|-1-----0-----0-----0-----0-----0-0-0-0-0-0-0-0-0-|
|-1-----0-----1-----0-----1-----1-1-1-1-1-1-1-1-1-|
|-2-----1-----3-----1-----3-----3-3-3-3-3-3-3-3-3-|
|-3-----0-----2-----0-----2-----2-2-2-2-2-2-2-2-2-|
|-1-----2-----3-----2-----3-----3-3-3-3-3-3-3-3-3-|
|-1-----x-----x-----x-----x-----x-x-x-x-x-x-x-x-x-|

If you know these chords and this progression above you've got the whole song


Bridge/Interlude
|--------------------------------------------------------------|
|--------------------------------------------------------------|
|--------------------------------------------------------------|
|----------------------------------------------1--3------------|
|-------------------------------3-3-3-3--3-3-3--------3---1----|
|-1-1-1-1--1-1-1-4-4-4-4--4-4-4-----------------------------4--|

One octave higher
|--------------------------------------------------------------|
|----------------------------------------------4--6------------|
|-------------------------------5-5-5-5--5-5-5--------5---3----|
|-3-3-3-3--3-3-3-6-6-6-6--6-6-6-----------------------------6--|
|--------------------------------------------------------------|
|--------------------------------------------------------------|

Take this along with another version, and make ray proud





Comments


Popular Ray Charles tabs & chords
Hit The Road Jack Bass Tabs
Am I Blue Chords
Crying Time Chords
Hit The Road Jack 2 Chords
Mess Around 1 Chords
That Spirit Of Christmas Chords
You Don't Know Me 2 Chords
What'd I Say 1 Tabs
Whatd I Say Intro Tabs
What Would I Do Without You Ukulele


Song lyrics



↑ Back to top | Tablatures and chords are parodies/interpretations of the original songs. You may use it for private study, scholarship, research or language learning purposes only
© 2014 AZChords.com Contact us | Privacy policy | DMCA | Add/correct tabs | Request tabs | Top 50 tabs