» » »

Ray Charles, Hit The Road Jack Bass tabs (ver.2)

Artists:  A B C D E F G H I J K L M N O P Q R S T U V W X Y Z # 

Hit The Road Jack Bass tabs (ver.2)

Ray Charles Tabs
 Rating:
4/5 (4 votes)
Hit The Road Jack lessons Tabs too difficult? Try these video lessons and learn fast
                research. #

The bass part of the song (Remastered Version) actually is pretty simple, but you have
to bring a little swing feeling into it by adding dead notes (x) or double the note you
played before. I didn't write all variations in chorus and verse you can hear in that 
song - there are too many!
It's up to you to find your set of variations...

Have fun!



x :Dead note

Intro (2x)
   1  2  3  4   1  2  3  4
G |------------|------------|
D |6-----4-----|------------|
A |------------|7-----6-----|
E |------------|------------|
   G#    F#     E     D#


Chorus (2x)
   1  2  3  4   1  2  3  4   1  2  3  4   1  2  3  4
G |------------|------------|------------|------------|
D |6-----4-----|------------|6----x4-----|-----------4|
A |-----------x|7----x6-----|-----------x|7----x6-x6--|
E |------------|------------|------------|------------|

G |------------|------------|------------|------------|
D |6-----4-----|------------|6-----4-----|-----------4|
A |------------|7----x6-----|------------|7----x6-x6--|
E |------------|------------|------------|------------|


Verse (2x)
   1  2  3  4   1  2  3  4   1  2  3  4   1  2  3  4
G |------------|------------|------------|------------|
D |6-----4-----|-----------x|6-----4-----|-----------4|
A |-----------x|7----x6-----|-----------x|7----x6-x6--|
E |------------|------------|------------|------------|



Chorus (2x)
Verse (2x)
Chorus (2x)
End (like Chorus)




Thank you for your Music, Ray!
            
Submit corrections

comments powered by Disqus
↑ Back to top | Ray Charles Bass for Hit The Road Jack. Lyrics for acoustic guitar and electric guitar. Tablatures and chords are parodies/interpretations of the original songs. You may use it for private study, scholarship, research or language learning purposes only