» » »

Ray Charles, Georgia On My Mind Tabs (ver.1)

Artists:  A B C D E F G H I J K L M N O P Q R S T U V W X Y Z # 

Georgia On My Mind Tabs (ver.1)

Ray Charles Tabs
Rating:
5/5 (2 votes)
Georgia On My Mind lessons Tabs too difficult? Try these video lessons and learn fast
                +++++++++++++++++

This is a guitar chord transcription of the song.


++++++++++++++++++++++

|-----8--|----------|-----10-8------|------------|
|--10-10-|--10-8----|--10------10-8-|--6-6-6-6-8-|
|--9--9--|--9--7----|---------------|--7---6-----|
|--10-10-|--10-8----|---------------|--7---6-----|
|--8--8--|--8--7----|---------------|------------|
|--------|----------|---------------|--7---6-----|

|-----8-12-10----|-----10----8-|--10-10-10-10---|
|--10------10----11----11-10-8-|--------------9-|
|----------------|-----10------|----------------|
|----------10----|-----------8-|----------------|
|----------9-----|-----10----7-|----------------|
|----------------|-------------|----------------|


|-----8--|----------|-----10-8------|------------|
|--10-10-|--10-8----|--10------10-8-|--6-6-6-6-8-|
|--9--9--|--9--7----|---------------|--7---6-----|
|--10-10-|--10-8----|---------------|--7---6-----|
|--8--8--|--8--7----|---------------|------------|
|--------|----------|---------------|--7---6-----|


|-----8-12-10--|--------------------------|-----||-----|
|--10------10--|--11-11---------10-10-----|--6--||--6--|
|--------------|--10----7-10----9--9------|--5--||--6--|
|----------10--|--8-------------8--8------|--3--||--5--|
|----------9---|--10----------------------|-----||-----|
|--------------|----------------8--8------|--5--||--5--|


Bridge

|--------3--|--5--------|----------3-5--|--8--5-7--|--------3--|--5-8---10-12--|
|--6-3-6-3--|----6-3-6--|--6---3-6------|--10---6--|--6-3-6----|--------9--12--|
|--5-----3--|--------7--|--5------------|--9----7--|--5--------|--------10-----|
|--3-----3--|--------6--|--3------------|--10---6--|--3--------|--------9--12--|
|--5--------|-----------|--5------------|--8-------|--5--------|-----------11--|
|-----------|--------6--|---------------|--8-------|-----------|---------------|

|--8-8-5-8-|----3---3---3---3--|
|--8-8-----|----3---3---3---3--|
|----------|----3---3---3---3--|
|--7-7-----|--5---4---3---2----|
|--7-7-----|-------------------|
|----------|-------------------|

End of bridge


|-----8--|----------|-----10-8------|------------|
|--10-10-|--10-8----|--10------10-8-|--6-6-6-6-8-|
|--9--9--|--9--7----|---------------|--7---6-----|
|--10-10-|--10-8----|---------------|--7---6-----|
|--8--8--|--8--7----|---------------|------------|
|--------|----------|---------------|--7---6-----|

|-----8-12-10----|-----10----8-|--10-10-10-10---|
|--10------10----11----11-10-8-|--------------9-|
|----------------|-----10------|----------------|
|----------10----|-----------8-|----------------|
|----------9-----|-----10----7-|----------------|
|----------------|-------------|----------------|
            
Submit corrections

comments powered by Disqus
↑ Back to top | Ray Charles Tabs for Georgia On My Mind. Lyrics for acoustic guitar and electric guitar. Tablatures and chords are parodies/interpretations of the original songs. You may use it for private study, scholarship, research or language learning purposes only