» » »

Raveonettes, Uncertain Times Tabs (ver.1)

Artists:  A B C D E F G H I J K L M N O P Q R S T U V W X Y Z # 

Uncertain Times Tabs (ver.1)

Raveonettes Tabs
 Rating:
4.4/5 (7 votes)
Uncertain Times lessons Tabs too difficult? Try these video lessons and learn fast
                tune half step down.

the cords are played this way

   D                          A
E||--2--2--2--2--0--2--2--0--|--------------------------|
B||--3--3--3--3--3--3--3--3--|--0--2--2--2--0--2--2--2--|
G||--2--2--2--2--2--2--2--2--|--2--2--2--2--2--2--2--2--|
D||--0--0--0--0--0--0--0--0--|--2--2--2--2--2--2--2--2--|
A||--------------------------|--------------------------|
E||--------------------------|--------------------------|

G                          A
--3--3--3--3--3--3--3--3--|--------------------------||
--3--3--3--3--3--3--3--3--|--2--2--2--2--2--2--2--2--||
--0--0--0--0--0--0--0--0--|--2--2--2--2--2--2--2--2--||
--0--0--0--0--0--0--0--0--|--2--2--2--2--2--2--2--2--||
--2--2--2--2--2--2--2--2--|--------------------------||
--3--3--3--3--3--3--3--3--|--------------------------||





D                                A
Too many faded years and I can’t hold her

G                             A
So many strange up times have come my way

D                               A
Too many teardrops yeah I don’t get it

G                            A
Life moves on if you want it to

D                                     A
Too many times I’ve felt my heart was broken

G                               A
Wasting time on someone I don’t get

D                                   A
But I’ve found someone who makes me better

G                                    A
Yeah I’ve found someone who makes me go



D                                  A
I wanna ride with her in uncertain times

G                                       A
I wanna go where my thoughts can take a nap

D                                  A
And if the atom bomb should end us both

G                                     A
I’ll be happy to go to the stars with you





***SOLO
D#||--------------------------|-----------------------------------------|
A#||--------------------------|-----------------------------------------|
F#||--------------------------|-----------------------------------------|
C#||-4~---4--7--9--7/--2--2---|-2-2-4--4b-4-4b---4--4b-4--4b-4b-4--2----|
G#||--------------------------|-----------------------------------------|
D#||--------------------------|-----------------------------------------|
            
Submit corrections

comments powered by Disqus
↑ Back to top | Raveonettes Tabs for Uncertain Times. Lyrics for acoustic guitar and electric guitar. Tablatures and chords are parodies/interpretations of the original songs. You may use it for private study, scholarship, research or language learning purposes only