» » »

Raveonettes, Twilight Tabs (ver.1)

Artists:  A B C D E F G H I J K L M N O P Q R S T U V W X Y Z # 

Twilight Tabs (ver.1)

Raveonettes Tabs
 Rating:
4.3/5 (6 votes)
Twilight lessons Tabs too difficult? Try these video lessons and learn fast
1
                -----------------------------------------------------------------

Twilight - The Raveonettes

-----------------------------------------------------------------

Tuning: EADGBe

Bit of a disclaimer: This is my first tab, and while I feel that
it is fairly accurate, there is a lot of tremolo and HEAVY fuzz
in this tune, so I may have missed a few nuances. If you think
I've got something wrong, please e-mail me with the correction.
Or even if you don't have the correction, just let me know where
you think it's wonky.


Riff A
e|-------------------------|
B|----8-7-8---7-8-7--------|
G|--8-------8--------------|
D|-------------------------|
A|-------------------------|
E|-------------------------|

Riff B
e|-------------------------|
B|----9-7-9---7-9-7--------|
G|--8-------8--------------|
D|-------------------------|
A|-------------------------|
E|-------------------------|

Intro is Riff A played 12x
Verse 1 is Riff A 4x, Riff B 2x, Riff A 2x, and then Riff C once

Riff C
e|------------------------------------|
B|---------------9-9-----------7-7----|
G|--8/10-10-8/10-----6/8-8-6/8------8-|
D|----------------------------------8-|
A|----------------------------------6-|
E|------------------------------------|

Verse 2 is the same as Verse 1, but play Riff C 2x

Verse 3 is Riff A 8x, Riff B 2x, Riff A 2x, and Riff C once

Riff D
e|-----------------------------|
B|-----------------------------|
G|--------------------6--------|
D|----8--8--8--8--8-----8---8--|
A|--6--6--6--6--6--6------6----|
E|-----------------------------|

Bridge is Riff D played 4x

Solo
e|--------9-11--11-9-11-9--------------------------------------------|
B|--9-11------------------11-9-11-9--------------9-11-11-9-11-9-11---|
G|----------------------------------11-8----8-11---------------------|
D|-------------------------------------------------------------------|
A|-------------------------------------------------------------------|
E|-------------------------------------------------------------------|

e|-----------9-11-11-9-------------------------------------------|
B|-9-11-9-11-----------11-9-11-9-------------9-11-11-11-9--------|
G|-------------------------------11-8---8-11--------------11-8---|
D|---------------------------------------------------------------|
A|---------------------------------------------------------------|
E|---------------------------------------------------------------|

During the solo, another guitar plays this 3x
e|----------------------------------|
B|----------------------------------|
G|----------------------------------|
D|---4---4---6---6---8---8---8---8--|
A|-2---2---4---4---6---6---6---6----|
E|----------------------------------|

And fourth time through plays
e|--------------------|
B|--------------------|
G|-----------------8--|
D|---4---4---6---6-8--|
A|-2---2---4---4---6--|
E|--------------------|

During the last verse/outro, it sounds like the guitar is playing the solo
and then variations on the solo until the end of the song, but I can't hear
it well enough to try to tab the variations. You can get away with playing
the solo a couple times under the vocals, and then picking parts of the solo
to repeat and it'll sound pretty decent, IMHO.

| /  slide up
| \  slide down
| h  hammer-on
| p  pull-off
| ~  vibrato
| +  harmonic
| x  Mute note
            
Submit corrections

comments powered by Disqus
↑ Back to top | Raveonettes Tabs for Twilight. Lyrics for acoustic guitar and electric guitar. 1 Tablatures and chords are parodies/interpretations of the original songs. You may use it for private study, scholarship, research or language learning purposes only