» » »

Raveonettes, Lust Tabs (ver.1)

Artists:  A B C D E F G H I J K L M N O P Q R S T U V W X Y Z # 

Lust Tabs (ver.1)

Raveonettes Tabs
 Rating:
4/5 (4 votes)
Lust lessons Tabs too difficult? Try these video lessons and learn fast
                Tune down half a step.

Am               C/G
I fell out of heaven
D                F     G
to be with you in hell
Am               C/G
my sin's not quite seven
D                F     G
nothing much to tell

lust I have and crave
a saintly boy I'm not
I take it to my grave
beside it cursed i'll rot

I ride these roads alone
beneath the sulfur sky
everywhere I roam
life is one big lie

when the fireball goes down
out by LA waste
I come into town
but only for a day

i'm starving on my knees
I pray for you to understand
a man sure is weak
but lust holds my hand

I struggle and I cry
I pounce with no avail
at least I never lied
or did the truth derail

"solo"

This is roughly the pattern.  It's simply bar chord A.

Eb-----------------------------------------------------|
Bb-----------------------------------------------------|
Gb-----------------------------------------------------|
Db----7--5---------------------------------------------|
Ab----------7--5h7--7--7--5--7--5----------------------|
Eb-5---------------------------------------------------|

Alternatively, here's a single person method of playing the solo with the chords:

Eb----0-------------0----------2-----------1-----3----------|
Bb----1-------------1----------3-----------1-----3----------|
Gb----2--0----------0----------2--0--------2-----4----------|
Db----2-----2--0h2--2--2--0--0-0-----2--3--3--3--5----------|
Ab-0--0-------------3----------x-----------3-----5----------|
Eb----x-------------3----------x-----------1-----3----------|

I recommend adding fills with your index finger between the single notes.

- Arysteia
            
Submit corrections

comments powered by Disqus
↑ Back to top | Raveonettes Tabs for Lust. Lyrics for acoustic guitar and electric guitar. Tablatures and chords are parodies/interpretations of the original songs. You may use it for private study, scholarship, research or language learning purposes only