>
 >
Love In A Trash Can

Love In A Trash Can Guitar Tabs

Raveonettes - Love In A Trash Can chords, tabs, tablatures, lyrics

Guitar lessons | Add/correct | Request | Top 50 tabs Artists:  A B C D E F G H I J K L M N O P Q R S T U V W X Y Z 0-9

Love In A Trash Can Guitar Tabs – Raveonettes

CD, Sheet music, Poster

Do you like Love In A Trash Can? Share with your friends now
Tabs

Hi, this is my first tab...use word to view corectly this tab...
Please rate this tab

GUITAR 1 (intro and verse):

  Esus  Bsus Dsus Esus Fsus

e|-------------------------|
B|-------------------------|
G|-------------------------|
D|--2-2s4444s7777s9999s12--|
A|--2-2s2222s5555s7777s9---|
E|-------------------------|


GUITAR 2 (intro)


eb|----------------------------------------------------------------------------|
Bb|b6--b6-b6--6------b(6666666)r66------b(666666)r66--3------b(666666)r66-----|
Gb|---------------3-----------------3-------------------5-3----------------3---|
Db|------------------5-----------------5-------------------------------------5-|
Ab|----------------------------------------------------------------------------|
Eb|----------------------------------------------------------------------------|

GUITAR 2 (verse)
F#        E
        Play this chord stopped
-3-      -1-|
-3-      -1-|
-4-      -2-|
-5-      -3-|
---      ---|
---      ---|


GUITAR 2 (end 1 verse)

eb|----------------------------------------------------------------------------|
Bb|-b(666666)r66------b(6666666)r66------b(666666)r66--3-----------------------|
Gb|---------------3-----------------3-------------------5-3-- b(555555)r55-3---|
Db|------------------5-----------------5-------------------------------------5-|
Ab|----------------------------------------------------------------------------|
Eb|----------------------------------------------------------------------------|


GUITAR 2 (bridge)


   F# E  F#

eb|--33-1-3--|
Bb|--33-1-3--|
Gb|--44-2-4--|
Db|--55-3-5--|
Ab|--55-3-5--|
Eb|--33-1-3--|


GUITAR 2 (end 2 verse)


eb|---------------------------------------------------------|
Bb|b6--b6-b6--6------b(6666666)r66------b(666666)r66--3----|
Gb|---------------3-----------------3-------------------5-3-|
Db|------------------5-----------------5--------------------|
Ab|---------------------------------------------------------|
Eb|---------------------------------------------------------|

eb|---------------------|
Bb|----3--3-------------|
Gb|--b5-b5-b5-5-3-------|
Db|---------------5-3-5-|
Ab|---------------------|
Eb|---------------------|

GUITAR 2 (end 3 verse)


eb|-----------------------------------------------------------|
Bb|b6b6b6--6-----------------------------b(666666)r663-----|
Gb|-------------3-----3-b(555555)r553--------------------5-3-|
Db|---------------5-5--------------------5--------------------|
Ab|-----------------------------------------------------------|
Eb|-----------------------------------------------------------|



GUITAR 2 (intro solo)      GUITAR 2 (solo)

eb|----------------------|------------------------------------------------------|
Bb|---3-3--3--3---------|------------------3333-------------------------3-3-3--|
Gb|-b5-b5-b5-b5-r5-3---3-|----------5-3-5b(55555)3-b5r5-3-5-3-------3-5b5b5b5b5-|
Db|------------------5---|-5-353535---------------------------5-3-5-------------|
Ab|----------------------|------------------------------------------------------|
Eb|----------------------|------------------------------------------------------|

-------------------------------------------------------------------------------|
3-3--------------------------------------------------------------3-3-3----3333-|
b5b5r5-3-5p3-33--------3b(55555)r5-3-3---3-b5r53b5r53b5r53-3-3b5b5b53-5-5555-|
------------5535-535-5-------------5-35-5------------------5-5----------------|
-------------------------------------------------------------------------------|
-------------------------------------------------------------------------------|


----------------------------------------------------|
--------------b(666666)r66--------------------------|
b5r5-3---------------------3-----3-b(555555)r55----|
-------5---------------------5-5----------------3-5-|
----------------------------------------------------|
----------------------------------------------------|




GUITAR 2 (end final verse)


eb|----------------------------------------------------------------------------|
Bb|-b(666666)r66------b(6666666)r66------b(666666)r66--3-----------------------|
Gb|---------------3-----------------3-------------------5-3-- b(555555)r55-3---|
Db|------------------5-----------------5-------------------------------------5-|
Ab|----------------------------------------------------------------------------|
Eb|----------------------------------------------------------------------------|



Song Order:

GUITAR 1 (intro) x2         GUITAR 2 mute

GUITAR 1 (intro) more times GUITAR 2 (intro)

GUITAR 1 (verse) more times GUITAR 2 (verse)

GUITAR 1 (verse) more times GUITAR 2 (end 1 verse)

GUITAR 1 (verse) more times GUITAR 2 (verse)

GUITAR 1  stop              GUITAR 2 (bridge)

GUITAR 1 (verse) more times GUITAR 2 (end 2 verse)

GUITAR 1 (verse) more times GUITAR 2 (verse)

GUITAR 1 stop               GUITAR 2 (bridge)

GUITAR 1 (verse) more times GUITAR 2 (end 3 verse)

GUITAR 1 stop               GUITAR 2 (intro solo)

GUITAR 1 (verse) more times GUITAR 2 (solo)

GUITAR 1 stop               GUITAR 2 stop

GUITAR 1 (verse) x4         GUITAR 2 stop

GUITAR 1 (verse) more times GUITAR 2 (end final verse)

Tablature Legend
----------------
 h   - hammer-on
 p   - pull-off
 b   - bend
 pb  - pre-bend
 r   - bend release (if no number after the r, then release immediately)
 /\  - slide into or out of (from/to "nowhere")
 s   - legato slide
 S   - shift slide
 ~   - vibrato
 PM  - palm muting
 x   - on rhythm slash represents muted slash





Comments


Popular Raveonettes tabs & chords
The Great Love Sound Bass Tabs
Seductress Of Bums Chords
She Ownes The Streets Chords
The Enemy Chords
Uncertain Times Chords
With My Eyes Closed Chords
You Say You Lie Intro Tabs
Here Comes Mary Ukulele
Railroad Tracks Ukulele
Sleepwalking Ukulele


Song lyrics



↑ Back to top | Tablatures and chords are parodies/interpretations of the original songs. You may use it for private study, scholarship, research or language learning purposes only
© 2014 AZChords.com Contact us | Privacy policy | DMCA | Add/correct tabs | Request tabs | Top 50 tabs