» » »

Raveonettes, Attack Of The Ghost Riders Tabs (ver.3)

Artists:  A B C D E F G H I J K L M N O P Q R S T U V W X Y Z # 

Attack Of The Ghost Riders Tabs (ver.3)

Raveonettes Tabs
 Rating:
4/5 (4 votes)
Attack Of The Ghost Riders lessons Tabs too difficult? Try these video lessons and learn fast
1
                The Raveonettes
Attack Of The Ghost Riders


Riff
e|---------------------------------|
B|---------------------------------|
G|---------------------------------|
D|-8---8-8-6-6-6-6-8---8-8-6-6-6-6-|
A|-8---8-8-6-6-6-6-8---8-8-6-6-6-6-|
E|-6---6-6-4-4-4-4-6---6-6-4-4-4-4-| x5

Chorus
e|-----------------------------------------------------------------|
B|-----------------------------------------------------------------|
G|-----------------------------------------------------------------|
D|-4-4-4-4-4-4-4-4-3-3-3-3-3-3-3-3-8---8-8-6-6-6-6-8---8-8-6-6-6-6-|
A|-4-4-4-4-4-4-4-4-3-3-3-3-3-3-3-3-8---8-8-6-6-6-6-8---8-8-6-6-6-6-|
E|-2-2-2-2-2-2-2-2-1-1-1-1-1-1-1-1-6---6-6-4-4-4-4-6---6-6-4-4-4-4-|

e|---------------------------------------------------|
B|---------------------------------------------------|
G|---------------------------------------------------|
D|-4-4-4-4-4-4-4-4-3-3-3-3-3-3-3-3-8---8-8-6-6-6-6-8-|
A|-4-4-4-4-4-4-4-4-3-3-3-3-3-3-3-3-8---8-8-6-6-6-6-8-|
E|-2-2-2-2-2-2-2-2-1-1-1-1-1-1-1-1-6---6-6-4-4-4-4-6-|

Post-Chorus
e|---------------------------------|
B|---------------------------------|
G|---------------------------------|
D|-8-8-8-8-8-8-8-8-8-8-8-8-8-8-6-6-|
A|-8-8-8-8-8-8-8-8-8-8-8-8-8-8-6-6-|
E|-6-6-6-6-6-6-6-6-6-6-6-6-6-6-4-4-| x3

Bridge
e|------------------------------------------|
B|------------------------------------------|
G|-13-13-13-13-15-15-15-15-13-13-13-11---10-|
D|-13-13-13-13-15-15-15-15-13-13-13-11---10-|
A|-11-11-11-11-13-13-13-13-11-11-11-09---08-|
E|------------------------------------------|

Riff x6

Chorus

Interlude 1
e|---------------------------------|
B|---------------------------------|
G|---------------------------------|
D|-8---9-9-9-9-9-9-9-9-9-9-9-6-6-6-|
A|-8---7-7-7-7-7-7-7-7-7-7-7-6-6-6-|
E|-6-------------------------4-4-4-| x3

Bridge

Interlude 2
e|---------------------------------|
B|---------------------------------|
G|---------------------------------|
D|-4---7-7-7-7-7-7-7-7-7-7-7-3-3-3-|
A|-4---5-5-5-5-5-5-5-5-5-5-5-3-3-3-|
E|-2-------------------------1-1-1-| x3

Bridge

Solo:
e|----------------|
B|----14----13----|
G|-10----10----13-|
D|----------------|
A|----------------|
E|----------------| x8

Riff x6


I had a hard time deciphering the solo, and it may still be wrong... Just have fun with 
and rock the hell out.

-Jack
            
Submit corrections

comments powered by Disqus
↑ Back to top | Raveonettes Tabs for Attack Of The Ghost Riders. Lyrics for acoustic guitar and electric guitar. 1 Tablatures and chords are parodies/interpretations of the original songs. You may use it for private study, scholarship, research or language learning purposes only