>
 >
Attack Of The Ghost Riders

Attack Of The Ghost Riders Guitar Tabs

Raveonettes - Attack Of The Ghost Riders chords, tabs, tablatures, lyrics

Guitar lessons | Add/correct | Request | Top 50 tabs Artists:  A B C D E F G H I J K L M N O P Q R S T U V W X Y Z 0-9

Attack Of The Ghost Riders Guitar Tabs – Raveonettes

CD, Sheet music, Poster

Do you like Attack Of The Ghost Riders? Share with your friends now
TabsTabs v2Tabs v3
Band: The Raveonettes

Intro:
G# Bbm G#
e-------------------|
B-------------------|
G-------------------| x2
D-6-8-8-8-6-6-6-6-|
A-6-8-8-8-6-6-6-6-|
E-------------------|

Verse:
Bbm G#
e----------------|
B----------------|
G----------------| x8
D-8-8-8-6-6-6-6-|
A-8-8-8-6-6-6-6-|
E----------------|

Post-Chorus:
F# G#
e-2----4----|
B-2----4----|
G-3----5----| x1
D-4----6----|
A-4----6----|
E-2----4----|

Chorus:
G# Guitar 1:
e--------------------------4-4-4- e------------------------------------------|
B--------------------------4-4-4- B------------------------------------------|
G--------------------------5-5-5- G-13-13-13-15-15-15-15-13-13-13-11-10------|
D-9-9-9-9-9-9-9--9--9-9-9-6-6-6- x3 D-x-x-x--x-x-x-x-x-x-x-x-x----| x1
A-8-8-8-8-8-8-8-8--8-8-8-6-6-6- A-11-11-1113-13-13-13-11-11-11-9-8------|
E-6-6-6-6-6-6-6-6-6-6-6-4-4-4- E------------------------------------------|

F# Guitar 2:
e-2-2-2-2-2-2-2-2-2-2-2-2-2-2-|
B-2-2-2-2-2-2-2-2-2-2-2-2-2-2-|
G-6-6-6-6-6-6-6-6-6-6-6-6-6-6-|
D-4--4-4-4-4-4-4--4--4-4-4-4-4-4-| x1
A-4--4-4-4-4-4-4--4--4-4-4-4-4-4-|
E-2-2-2-2-2-2-2-2-2-2-2-2-2-2-|

Solo:
e---------------------------------------|
B------14--------13--------14-----------|
G-10--------10--------10--------10---13-|
D---------------------------------------| x4
A---------------------------------------|
E---------------------------------------|

Song order:
Intro
Verse
Post-Chorus
Intro
Post-Chorus
Intro x1
Chorus
Verse x2
Post-Chorus
Intro
Post-Chorus
Intro x1
Chorus
Solo
Verse x2





Comments


Popular Raveonettes tabs & chords
Dead Sound 2 Chords
Honey, I Never Had You Chords
Love Can Destroy Everything Chords
Somewhere In Texas Chords
Love In A Trash Can Intro Tabs
Dead Sound Ukulele
Here Comes Mary Ukulele
Lust Ukulele
Railroad Tracks Ukulele
Recharge And Revolt Ukulele


Song lyrics



↑ Back to top | Tablatures and chords are parodies/interpretations of the original songs. You may use it for private study, scholarship, research or language learning purposes only
© 2014 AZChords.com Contact us | Privacy policy | DMCA | Add/correct tabs | Request tabs | Top 50 tabs