» » »

Attack Of The Ghost Riders Tabs (ver.1)

Artists:  A B C D E F G H I J K L M N O P Q R S T U V W X Y Z # 

Attack Of The Ghost Riders Tabs (ver.1)

Raveonettes
Rating:
3/5 (2 votes)

Hard to play? Try these video lessons and learn fast.
                Band: The Raveonettes

Intro:
G# Bbm G#
e-------------------|
B-------------------|
G-------------------| x2
D-6—-8-8-8—-6-6-6-6-|
A-6—-8-8-8—-6-6-6-6-|
E-------------------|

Verse:
Bbm G#
e----------------|
B----------------|
G----------------| x8
D-8-8-8—-6-6-6-6-|
A-8-8-8—-6-6-6-6-|
E----------------|

Post-Chorus:
F# G#
e-2----4----|
B-2----4----|
G-3----5----| x1
D-4----6----|
A-4----6----|
E-2----4----|

Chorus:
G# Guitar 1:
e--------------------------4-4-4- e------------------------------------------|
B--------------------------4-4-4- B------------------------------------------|
G--------------------------5-5-5- G-13-13-13-15-15-15-15-13-13-13-11-10------|
D-9—-9-9-9-9-9-9--9--9-9-9-6-6-6- x3 D-x—-x—-x--x—-x—-x—-x—-x—-x—-x—-x—-x----| x1
A-8—-8-8-8-8-8-8—-8--8-8-8-6-6-6- A-11-11-11—13-13-13-13-11-11-11—-9—-8------|
E-6—-6-6-6-6-6-6—-6—-6-6-6-4-4-4- E------------------------------------------|

F# Guitar 2:
e-2—-2-2-2-2-2-2—-2—-2-2-2-2-2-2-|
B-2—-2-2-2-2-2-2—-2—-2-2-2-2-2-2-|
G-6—-6-6-6-6-6-6—-6—-6-6-6-6-6-6-|
D-4--4-4-4-4-4-4--4--4-4-4-4-4-4-| x1
A-4--4-4-4-4-4-4--4--4-4-4-4-4-4-|
E-2—-2-2-2-2-2-2—-2—-2-2-2-2-2-2-|

Solo:
e---------------------------------------|
B------14--------13--------14-----------|
G-10--------10--------10--------10---13-|
D---------------------------------------| x4
A---------------------------------------|
E---------------------------------------|

Song order:
Intro
Verse
Post-Chorus
Intro
Post-Chorus
Intro x1
Chorus
Verse x2
Post-Chorus
Intro
Post-Chorus
Intro x1
Chorus
Solo
Verse x2
            
Hard to play? Try these video lessons and learn fast. | Correct




comments powered by Disqus
↑ Back to top | Tablatures and chords are parodies/interpretations of the original songs. You may use it for private study, scholarship, research or language learning purposes only