>
 >
Aly, Walk With Me

Aly, Walk With Me Guitar Tabs

Raveonettes - Aly, Walk With Me chords, tabs, tablatures, lyrics

Guitar lessons | Add/correct | Request | Top 50 tabs Artists:  A B C D E F G H I J K L M N O P Q R S T U V W X Y Z 0-9

Aly, Walk With Me Guitar Tabs – Raveonettes

CD, Sheet music, Poster

Do you like Aly, Walk With Me? Share with your friends now
Tabs
-------------------------------------------------------------------------------
                             ALY, WALK WITH ME - The Raveonettes
-------------------------------------------------------------------------------

Tuning:EbAbDbGbBbEb



(Aly walk with me in the summer, Aly walk with me...)
Eb|-----------------|
Bb|-5r--------------|
Gb|-2r--------------|
Db|-2r------55-3-2r-|
Ab|-0r-0-00---------|
Eb|-----------------|

(...Aly walk with me in Portland, Aly walk with me...)
Eb|------------------------|
Bb|------------------------|
Gb|------------------------|
Db|-55-3-2r--------55-3-2r-|
Ab|-----------0-00---------|
Eb|------------------------|

(...Aly walks with me in dreams, so strange and true...)
Guitar 1
Eb|-----------------|
Bb|-5r--------------|
Gb|-2r--------------|
Db|-2r------55-3-2r-|
Ab|-0r-0-00---------|
Eb|-----------------|

Guitar 2
Eb|----------|
Bb|-5r-5b/5r-|
Gb|-2r-2b/5r-|
Db|-2r-2b/2r-|
Ab|-0r-0--0r-|
Eb|----------|

(...Can I walk with you in Portland? Walk next to you...)
Eb|-----------------------------|
Bb|-5r--------------------------|
Gb|-2r--------------------------|
Db|-2r---2---33/2-2---2---55-3-2|
Ab|-0r-0---0--------0---0-------|
Eb|-----------------------------|

Eb|--------------------------|
Bb|--------------------------|
Gb|--------------------------|X3
Db|---2---33/2-2---2---55-3-2|
Ab|-0---0--------0---0-------|
Eb|--------------------------|

Eb|-----------------|
Bb|-----------5b/5r-|
Gb|-----------2b/2r-|
Db|-55-3-2r---2b/2r-|
Ab|-----------0--0--|
Eb|-----------------|

(Aly walk with me in New York City, Aly walk with me...)
Eb|---------------|
Bb|-----(88-6-5r)-|
Gb|---------------|
Db|------55-3-2r--|
Ab|-0-00----------|
Eb|---------------|

(...Aly walk with me in the summer, Aly walk with me...)
Eb|-------|
Bb|-5b/5r-|
Gb|-2b/5r-|
Db|-2b/2r-|
Ab|-0--0r-|
Eb|-------|

(...Aly walk out of dreams into my arms...)
Eb|---------------|
Bb|-----(88-6-5r)-|
Gb|---------------|
Db|------55-3-2r--|
Ab|-0-00----------|
Eb|---------------|

(...Aly walk with me in the city, Aly walk with me...)
Eb|-------|
Bb|-5b/5r-|
Gb|-2b/5r-|
Db|-2b/2r-|
Ab|-0--0r-|
Eb|-------|

Eb|--------------------------|
Bb|--------------------------|
Gb|--------------------------|X8 (abuse your Big Muff, or any other fuzz
Db|---2---33/2-2---2---55-3-2|    pedal you have)
Ab|-0---0--------0---0-------|
Eb|--------------------------|

Eb|-----------------|
Bb|-----------------|
Gb|-----------------|
Db|-55-3-2r-55-3-2r-|
Ab|-----------------|
Eb|-----------------|

(Aly step right out of my head and kiss me goodnight...
...Aly walk with me in my dreams all through the night.)
Guitar 1
Eb|--------------------------|
Bb|--------------------------|
Gb|--------------------------|X8 (Once again, set your Big Muff up to the
Db|---2---33/2-2---2---55-3-2|    maximum)
Ab|-0---0--------0---0-------|
Eb|--------------------------|

Guitar 2
Eb|-------|
Bb|-5b/5r-|
Gb|-2b/5r-|X8 (Also, use lots of fuzz here)
Db|-2b/2r-|
Ab|-0--0r-|
Eb|-------|

Guitar 1 & 2
Eb|--------------------------|
Bb|--------------------------|
Gb|--------------------------|X4
Db|---2---33/2-2---2---55-3-2|
Ab|-0---0--------0---0-------|
Eb|--------------------------|

Eb|----|
Bb|----|
Gb|-2r-|
Db|-2r-|
Ab|-0r-|
Eb|----|





Comments


Popular Raveonettes tabs & chords
Railroad Tracks Chords
Somewhere In Texas Chords
Attack Of The Ghost Riders 1 Tabs
Curse The Night Tabs
Dead Sound Tabs
Heartbreak Stroll Tabs
Love In A Trash Can Tabs
That Great Love Sound Tabs
Here Comes Mary Ukulele
She Ownes The Streets Ukulele


Song lyrics



↑ Back to top | Tablatures and chords are parodies/interpretations of the original songs. You may use it for private study, scholarship, research or language learning purposes only
© 2014 AZChords.com Contact us | Privacy policy | DMCA | Add/correct tabs | Request tabs | Top 50 tabs