» » »

Raul Seixas, Cowboy Fora Da Lei Chords (ver.1)

Artists:  A B C D E F G H I J K L M N O P Q R S T U V W X Y Z # 

Cowboy Fora Da Lei Chords (ver.1)

Raul Seixas Tabs
Rating:
0/5 (0 votes)
Cowboy Fora Da Lei lessons Tabs too difficult? Try these video lessons and learn fast
                Tom: G

(intro) (C D G Em C D G)

  G
Mamãe, não quero ser prefeito
 Bm
Pode ser que eu seja eleito
     G            Em            D
E alguém pode querer me assassinar
    C           D
Eu não preciso ler jornais
    G            Em
Mentir sózinho eu sou capaz
      C            D            G
Não quero ir de encontro ao azar
   G
Papai não quero provar nada
   Bm
Eu já servi à Pátria amada
   G          Em          D
E todo mundo cobra minha luz
C             D
Oh, coitado, foi tão cedo
 G                 Em
Deus me livre, eu tenho medo
    C          D             G
Morrer dependurado numa cruz

(riff)      C         D              G
Eu não sou besta pra tirar onda de herói
        Em               C
Sou vacinado, eu sou cowboy
    D             G
Cowboy fora da lei
(riff)     C       D          G
o Durango Kid só existe no gibi
          Em              C
E quem quiser que fique aqui
               D             G
Entrar pra história com vocês

(riff)

  G/B        C
E |-----------0------------|
B |-----------1------------|
G |-----------0------------|
D |-----------2------------|
A |---0--2----3------------|
E |-3---------0------------|


(riff na melodia do coro)


E |----------7--8-8--7--5---------------7--/10---8-7-------------------|
B |---5-8-------------------7---7-5--------------------8---------------|
G |-----------------------------------7--------------------------------|
D |--------------------------------------------------------------------|
A |--------------------------------------------------------------------|
E |--------------------------------------------------------------------|


	"eu não sou besta..."

E |------------------8~--------------------7~--------------------------|
B |-------8-7--5-----------8-7--7-5------------------------------------|
G |-------------------------------------7------------------------------|
D |--------------------------------------------------------------------|
A |--------------------------------------------------------------------|
E |--------------------------------------------------------------------|


	"eu sou cowboy... cowboy fora da lei..."

E |--------8-7---------------------------------------------------------|
B |-------------8-7-7---5--7--8~~--------------------------------------|
G |--------------------------------------------------------------------|
D |--------------------------------------------------------------------|
A |--------------------------------------------------------------------|
E |--------------------------------------------------------------------|

	"entrar pra história é com vocês!"
            

comments powered by Disqus
↑ Back to top | Raul Seixas Chords for Cowboy Fora Da Lei. Lyrics for acoustic guitar and electric guitar. Tablatures and chords are parodies/interpretations of the original songs. You may use it for private study, scholarship, research or language learning purposes only