» » »

Raul Seixas, Aluga-se Bass tabs (ver.1)

Artists:  A B C D E F G H I J K L M N O P Q R S T U V W X Y Z # 

Aluga-se Bass tabs (ver.1)

Raul Seixas Tabs
Rating:
0/5 (0 votes)
Aluga-se lessons Tabs too difficult? Try these video lessons and learn fast
                Aluga – se Bass Tab By Raul Seixas

Intro:

G|--------------|
D|--------------|
A|--------------|
E|-0-3-55-------|

Chorus:

G|------------------------0-2------------------0-2---|-----------------2----|
D|-5-7----------------0h2p----5555---------0h2p------|-------------2-5----x2|
A|------------1h3p333--------------1h3p333-----------|------1h3p33----------|
E|-----1-3333----------------------------------------|11-01-----------------|

G|----------------------------|---------|  |-7h9p--|
D|------33-5-------------33-5-|---------|  |-------|
A|-1111-------------1111------|-5h7p-x7-|  |-------|
E|-----------111-01-----------|---------|  |-------|

By Leandro Haroutune.

Doubts, corrections or suggestions please mail me:
            
Submit corrections

comments powered by Disqus
↑ Back to top | Raul Seixas Bass for Aluga-se. Lyrics for acoustic guitar and electric guitar. Tablatures and chords are parodies/interpretations of the original songs. You may use it for private study, scholarship, research or language learning purposes only