» » »

Waited All My Life Chords (ver.1)

Artists:  A B C D E F G H I J K L M N O P Q R S T U V W X Y Z # 

Waited All My Life Chords (ver.1)

Raul Midon
Rating:
0/5 (0 votes)

Hard to play? Try these video lessons and learn fast.
                Raul Midon - Waited All My Life :

> e---5---4---5---4---5--5---5---4---5---4---5--5----2--5--5--5--5-5--7
> b---5---5---5---5---5--6---5---5---5---5---5--6----3--5--7--5--7-6--7
> g---4---4---4---4---4--4---4---4---4---4---4--4----2--4--6--4--6-5--7
> d--(4)-(4)--x---x---4--4--(4)-(4)--x---x---4--4----4--6--7--6--7-7--7
> a---5---5--(5)-(5)--4--4---5---5--(5)-(5)--4--4----2--4--5--4--5-5--9
> E(--x---x---x---x---x--x---x---x---x---x---x--x----2-(4)-5-(4)-5-5--9)

And then you keep going with the chords of the chorrus (using the slap picking
technique) : F#m7 - Bm7 - F#m7 - Bm7 - E - Bm7 ...

e---        -9--        -7-      -7-
b---        -10-        -7-      -9-
g---        -9--        -7-      -9-
d---  F#m7: -11-   Bm7: -7-   E: -9-
a---        -9--        -9-      -7-
E---        -9--        -7-      -7-


bridge:
> e---5--5--2--5----5--5--2---4
> b---7--5--3--5----7--5--3---5
> g---6--4--2--6----6--4--2---4
> d---7--6--4--7----7--6--4---6
> a---5--4--2--7----5--4--2---4
> E---5-(4)-2--5----5-(4)-2---4

Listen to the orignal song to help you!!
            
Hard to play? Try these video lessons and learn fast. | Correct




comments powered by Disqus
↑ Back to top | Tablatures and chords are parodies/interpretations of the original songs. You may use it for private study, scholarship, research or language learning purposes only