» » »

If Youre Gonna Leave Tabs (ver.1)

Artists:  A B C D E F G H I J K L M N O P Q R S T U V W X Y Z # 

If Youre Gonna Leave Tabs (ver.1)

Raul Midon
Rating:
0/5 (0 votes)

Tabs too difficult? Try these video lessons and learn fast.
                (Intro)
Standard Tuning

First tab I've worked on, I'll eventually get the whole song, figured I would get the 
up for starters, enjoy.


(Intro)

e----------------------------|
b---------------------3------|
g--------2----------4----2h4-|
d------4----------4----------|
a----4----------2------------|
e--2-------------------------|

e-----------------------0--|
b----------0----------3----|
g--------2----------4------|
d------4----------4--------|
a----4----------2----------|
e--2-----------------------|

e---------------------------------|
b---------------------3-----------|
g--------2----------4-----2h4p6---|
d------4----------4---------------|
a----4----------2-----------------|
e--2------------------------------|

e-----------------------|
b----------0---2--------|
g--------2-----2--------|
d------4----------------|
a----4------------------|
e--2--------------------|
            
Tabs too difficult? Try these video lessons and learn fast.




comments powered by Disqus
↑ Back to top | Tablatures and chords are parodies/interpretations of the original songs. You may use it for private study, scholarship, research or language learning purposes only