>
 >
Maybe

Maybe Chords

Raul Castro - Maybe chords, tabs, tablatures, lyrics

Guitar lessons | Add/correct | Request | Top 50 tabs Artists:  A B C D E F G H I J K L M N O P Q R S T U V W X Y Z 0-9

Maybe Chords – Raul Castro

CD, Sheet music, Poster

Do you like Maybe? Share with your friends now
ChordsUkulele
Intro: Cadd9--D-G-Em7--G-D/F#-Cadd9--D/A-D/F#-Em9----

Ocarina:

e|-------------------------------------------10-----------8-7-----------|
B|-----7-8--7-8--7--------8--10--10s12-10-12-----8--7---8-----10--8-7-8-|
G|-7-9-------------9--7-7-----------------------------9-----------------|
D|----------------------------------------------------------------------|
A|----------------------------------------------------------------------|
E|----------------------------------------------------------------------|

Guitar 1:

e|---------------------------------------------------|
B|--3-----3----3---3-----------3---------------------|
G|--0---0-0----2---0---------0----------0---2--------|
D|----2--------0-----------2----------0---0-0--------|
A|--3-----3------------------------------------------|
E|-----------------3-----0----------3-------2--------|

e|---------------------------------------0-----------------------------|
B|--3-----3----3---3---------3---------3---3-----------3-------3---3---|
G|--0---0-0----2---2-------0---------0---------0-----0-----0-----------|
D|----2------------------4---------4---------4-----4-----4---4---5---4-|
A|--3-----3----0-------------------------------------------------------|
E|-----------------2---0---------0---------------0---------------------|


Stanza 1: (G--Am7--Bm7--C--Em7--Em/C--D--Dsus)

....was        waitin'      chance      hopin'    ... understand      
e|----------------------------------------------------------------|
B|--0-----------1------------------------1------------------------|
G|--------2-----------0------2-----0-----------0------0-----0-----|
D|-----0-----------2------------0-----------2------------2--------|
A|--------------0------------2-----------3------------------------|
E|--3-------------------------------------------------0-----------|
     things        say
e|--------------------2-----------------------------------|
B|-----0--------------3-----------3---3----5--------------|
G|-----0------0-------2-----2-----2---2----7--------------|
D|-----2---2-------0-----0------5-4---5----7--------------|
A|--3-----------------------------------------------------|
E|--------------------------------------------------------|

Stanza 2: (G--Am7--Bm7--C--Em7--Em/C--D--Dsus)
....love       stronger  ...before     wanna         more
e|----------------------------------------------------------------|
B|--0-----------1------------------------1------------------------|
G|--0-----2-----------0------2-----0-----------0------0-----0-----|
D|--0--0-----------2------------0-----------2---------2--2--------|
A|--------------0------------2-----------3------------------------|
E|--3-------------------------------------------------0-----------|
but you         ...door
e|--------------------2-----3------0h2----0----------------|
B|-----0--------------3-----3------3---------3-------------|
G|-----0------0-------2-----2------2------------2----------|
D|-----2---2-------0------0-0------0-----------------------|
A|--3------------------------------------------------------|
E|---------------------------------------------------------|

Pre-Chorus: Am/F--C/E--C-G/B-G--
            Am/F--C/E--D--(Dsus)

  why don't ..try         to open    up your heart 
e|--------0----------3----------------------------------------|
B|-----1-----------1---------------1-------3-------0-------0--|
G|---2-----------0---------------0-------0-------0-------2----|
D|-3-----------2---------------2-------0-------0-------0------|
A|---------------------------3-------2------------------------|
E|-------------------------------------------3-------3--------|
 i won't     ....much          time.
e|-------0-------------3--------2------3-----0h2--------|
B|-----1-------------1----------3------3-----3----------|
G|---2-------------0------------2------2-----2----------|
D|-3-------------2--------------0------0-----0----------|
A|------------------------------------------------------|
E|------------------------------------------------------|

Chorus 1: ( The Pattern of plucking is dependent on the 
             beat of the song but i make a pattern of 
             plucking that fits on the melody and rhtym 
             of the song this how it goes!!!!)
            

          Csus2--D--G--Csus2--Em--A--D----
          Csus2--D--G--C-G/B-Am--D/F#--Em9----

...wrong         ..love me       ...know      ..never do  
e|--------------------------------------------------------------------|
B|---------3----------------7----------------3----------------3-------|
G|-----5-------5--------7-------7--------4-------4--------5-------5---|
D|---5---5---5---5----7---7---7---7----5---5---5---5----5---5---5---5-|
A|-3----------------5---------------------------------3---------------|
E|-----------------------------------3--------------------------------|
..else           ..there       ...for you 
e|----------------------------------------------------------------------|
B|---------8----------------5-----------------7-----------------7-------|
G|-----9-------9--------6-------6---------7-------7---------7-------7---|
D|---9---9---9---9----7---7---7---7-----7---7---7---7-----7---7---7---7-|
A|-7----------------------------------5-----------------5---------------|
E|------------------5---------------------------------------------------|
..wrong         ...more each       ..know           ..stay   
e|----------------------------------------------------------3---------|
B|---------3----------------7----------------3------------1---------3-|
G|-----5-------5--------7-------7--------4-------4------0---------0---|
D|---5---5---5---5----7---7---7---7----5---5---5---5------------0-----|
A|-3----------------5---------------------------------3-------2-------|
E|-----------------------------------3--------------------------------|
     but i know to whom you should belong.........
e|---------------------------------------------------0----------|
B|---------1---------------3-------------3---------3---3--------|
G|-----2-------2-------2-------2-------0---------0---------0----|
D|---2---2---2---2---0---0---0---0---4---------4---------4------|
A|-0------------------------------------------------------------|
E|-----------------2---------------0---------0------------------|

e|------------------------------------|
B|-------3-------3-----3--------------|
G|-----0-----0------------------------|
D|---4-----4---4---5------4-----------|
A|------------------------------------|
E|-0----------------------------------|


Stanza 3: (G--Am7--Bm7--C--Em7--Em/C--D--Dsus)

e|---------3--------------------------------------------------|
B|-----------3-------------1--------------1-----1----3--------|
G|-------4-----4---------0-----2-----0--------0------------0--|
D|-----5---------5-----2----------0---------2-----------0-----|
A|---5---------------0---------2----------3-------------------|
E|-3-------------------------------------------------0--------|

e|------------------------------------------------|
B|---0------------3---------------------3---------|
G|---0-----0------2-----2-------2-------2---7-----|
D|---2--2-------0-0--0--------4---4-----5---7-----|
A|-3----------------------------------------------|
E|------------------------------------------------|

Stanza 4: (G--Am7--Bm7--C--Em7--Em/C--D--Dsus)

e|------------------------------------------------------------|
B|-0-----0----1-----1-----------------1-----1----3------------|
G|-0---0----------0-------2------0--------0------------0------|
D|-0-0----------2--------------0--------2-----------0---------|
A|------------0-----------2-----------3-----------------------|
E|-3---------------------------------------------0------------|

e|--------------------2-----3------0h2----------------|
B|-----0--------------3-----3------3------------------|
G|-----0------0-------2-----2------2------------------|
D|-----2---2-------0--------0------0------------------|
A|--3-------------------------------------------------|
E|----------------------------------------------------|


Repeat Pre-Chorus:


Chorus 2: Csus2--D--G--Csus2--Em--A--D----
          Csus2--D--G--C-G/B-Am--D/F#--Am--F--Am--D/F#--(G--Gsus-G)

e|--------------------------------------------------------------------|
B|---------3----------------7----------------3----------------3-------|
G|-----5-------5--------7-------7--------4-------4--------5-------5---|
D|---5---5---5---5----7---7---7---7----5---5---5---5----5---5---5---5-|
A|-3----------------5---------------------------------3---------------|
E|-----------------------------------3--------------------------------|

e|----------------------------------------------------------------------|
B|---------8----------------5-----------------7-----------------7-------|
G|-----9-------9--------6-------6---------7-------7---------7-------7---|
D|---9---9---9---9----7---7---7---7-----7---7---7---7-----7---7---7---7-|
A|-7----------------------------------5-----------------5---------------|
E|------------------5---------------------------------------------------|

e|----------------------------------------------------------3---------|
B|---------3----------------7----------------3------------1---------3-|
G|-----5-------5--------7-------7--------4-------4------0---------0---|
D|---5---5---5---5----7---7---7---7----5---5---5---5------------0-----|
A|-3----------------5---------------------------------3-------2-------|
E|-----------------------------------3--------------------------------|

e|-----------------------------------------------------------------|
B|---------1---------------3---------------1---------------1-------|
G|-----2-------2-------2-------2-------2-------2-------2-------2---|
D|---2---2---2---2---0---0---0---0---2---2---2---2---3---3---3---3-|
A|-0-------------------------------0-------------------------------|
E|-----------------2-------------------------------1---------------|

e|--------------------------------------------------------|
B|---------1---------------3-----------0-----x-1-----0----|
G|-----2-------2-------2-------2-------0-----x-0-----0----|
D|---2---2---2---2---0---0---0---0-----0-----x-0-----0----|
A|-0------------------------------------------------------|
E|-----------------2-------------------3-----x-3-----3----|


Bridge: C--D--Em--D--
        C--D--Em--E/B--

Ocarina:

e|---------------------------------------------------|
B|-----7-8--7-8--7-----------7-8--7-8--10-10-12-10---|
G|-7-9-------------9--7-7--9-------------------------|
D|---------------------------------------------------|
A|---------------------------------------------------|
E|---------------------------------------------------|

e|-12-14-15--14-15-14--12--10-10-------------------12------19----24-|
B|----------------------------------------------12-----17-----22----|
G|-----------------------------------7-9--12-14---------------------|
D|------------------------------9-10--------------------------------|
A|------------------------------------------------------------------|
E|------------------------------------------------------------------|

Guitar 1:

e|-------------------------------------------------------|
B|--------5-----------7------------8------------7--------|
G|------5-----------7------------9------------7----------|
D|----5-----------7------------9------------7------------|
A|--3-----------5------------7------------5--------------|
E|-------------------------------------------------------|

e|-------------------------------------------------------|
B|--------5-----------7------------8--------5-5----------|
G|------5-----------7------------9--------4-4-4----------|
D|----5-----------7------------9--------2-2-2-2----------|
A|--3-----------5------------7----------2-2-2-2----------|
E|-------------------------------------------------------|


Chorus 3: ( 1 step higher D)

          Dsus2--E--A--Dsus2--F#m--B--E----
          Dsus2--E--A--D-A/C#-Bm--E/G#--Bm--G--Bm--E/G#--

e|--------------------------------------------------------------------|
B|---------5----------------9----------------5----------------5-------|
G|-----7-------7--------9-------9--------6-------6--------7-------7---|
D|---7---7---7---7----9---9---9---9----7---7---7---7----7---7---7---7-|
A|-5----------------7---------------------------------5---------------|
E|-----------------------------------5--------------------------------|

e|-----------------------------------------------------------------------|
B|------------10------------------7---------------9---------------9------|
G|------11----------11--------8-------8-------9-------9-------9-------9--|
D|---11----11----11----11---9---9---9---9---9---9---9---9---9---9---9---9|
A|-9--------------------------------------7---------------7--------------|
E|------------------------7----------------------------------------------|

e|------------------------------------------------------------------|
B|---------5---------------9---------------5-------------7-------2--|
G|-----7-------7-------9-------9-------6-------6-------7-------2----|
D|---7---7---7---7---9---9---9---9---7---7---7---7---7-------2------|
A|-5---------------7-------------------------------5-------4--------|
E|---------------------------------5--------------------------------|

e|------------------------------------------------------------------|
B|---------3---------------5---------------3---------------3--------|
G|-----4-------4-------4-------4-------4-------4-------2-------2----|
D|---4---4---4---4---2---2---2---2---4---4---4---4---0---0---0---0--|
A|-2-------------------------------2--------------------------------|
E|-----------------4-------------------------------3----------------|

e|-----------------------------------|
B|---------3---------------5---------|
G|-----4-------4-------4-------4-----|
D|---4---4---4---4---2---2---2---2---|
A|-2---------------------------------|
E|-----------------4-----------------|

Outro: Dadd9--E-A-F#m7--A-E/G#-Dadd9--E--A----Ahold

Ocarina:

e|-------------------------------------------------12------------|
B|---------9-10--9-10--9---------10-12-12h14-12-14-----10---9----|
G|----9-11---------------11-9-9----------------------------------|
D|---------------------------------------------------------------|
A|---------------------------------------------------------------|
E|---------------------------------------------------------------|

Guitar 1:

e|-0-----0----0---------------------------------------|
B|-3---3-3----0-----5-------------5-------------------|
G|---2--------------2-----------2----------2---4------|
D|-0-----0----2---------------4----------2---2-2------|
A|------------------0------------------0--------------|
E|--------------------------2------------------4------|

e|-------0----------------------------------------------2---0--|
B|-----3----------9-------------------------3h2-------------2--|
G|---2------------9-----------------2-------2---------------2--|
D|-0--------------9--------------2-----2----2----2-h-4------2--|
A|----------------7-----------0-------------0---------------0--|
E|-------------------------------------------------------------|


I.  There i was waitin for a chance
    Hopin' that you'll understand
    The things i wanna say

II. As my love went stronger than before
    I wanna see you more and more
    But you closed your door

Pre-Chorus:
    Why don't you try 
    To open up your heart
    I won't take so much of your time

Chorus 1:
    Maybe it's wrong to say "Please love me too"
    Cause' i know you never do
    Somebody else is waitin' there inside for you
    Maybe its wrong to love you more each day
    Cause' i know he's here to stay
    But i know to whom you should belong

III. I believed what you said to me
     We should set each other free
     That's how you want it to be

II. But my love went stronger than before
    I wanna see you more and more
    But you closed your door

Chorus 2&3:
    Maybe it's wrong to say "Please love me too"
    Cause' i know you never do
    Somebody else is waitin' there inside for you
    Maybe its wrong to love you more each day
    Cause' i know he's here to stay
    But my love is strong
    I don't know if this is wrong    
    But i know to whom you should belong

Bridge:
Chorus 3:
Outro:





Comments


Popular Raul Castro tabs & chords
Everyday I Love You Chords
Glory Of Love Chords
How Can I Fall Chords
Just Tell Me You Love Me Chords
Just Tell Me You Love Me 1 Chords
Yakap Chords
Hanggang Kailan Ukulele
How Can I Fall Ukulele
Maybe Ukulele
Yakap Ukulele


Song lyrics



↑ Back to top | Tablatures and chords are parodies/interpretations of the original songs. You may use it for private study, scholarship, research or language learning purposes only
© 2014 AZChords.com Contact us | Privacy policy | DMCA | Add/correct tabs | Request tabs | Top 50 tabs