>
 >
Everyday I Love You

Everyday I Love You Chords

Raul Castro - Everyday I Love You chords, tabs, tablatures, lyrics

Guitar lessons | Add/correct | Request | Top 50 tabs Artists:  A B C D E F G H I J K L M N O P Q R S T U V W X Y Z 0-9

Everyday I Love You Chords – Raul Castro

CD, Sheet music, Poster

Do you like Everyday I Love You? Share with your friends now
ChordsUkulele
-----------------------------------------------------
-----------------------------------------------------

Intro:
            D           G             A           D
e----10-12-|14-9-10----|------9-10--|-12----9---|----------------|
B-10-------|--------10-|------------|----12-----|----------------|
G----------|-----------|-12---------|--------12-|-11--11h12p11---|
D----------|-----------|------------|-----------|----------------|
A----------|-----------|------------|-----------|----------------|
E----------|-----------|------------|-----------|----------------|

Verse 1:
-------
    D                G                  A                  D
I don't know but I believe, That some things are meant to be
              Bm           G      G        A    D 
And that you make a better me, Everyday I love you

Riff played at end of D(after "..everyday I love u")
e----0-----|
B-2h3--3---|
G----------|
D----------|
A----------|
E----------|
    D                              G               A                D
I never thought that dreams came true, But youve shown me that they do
            Bm                 G     G         A    D    
I know that I learn something new, Everyday I love you

CHORUS:
-------
    G      A          D       G       A     D           
Cos I believe that destiny is out of our control
         G     A      D   Bm   G        D        G         A
and you never live until you love with all your heart and soul

Verse2:
-------
        D                G           A               D
Its a touch when I feel bad, its a smile when I get mad
          Bm             G      G        A    D 
All the little things I had, Everyday I love you

Bridge: Guitar solo:
--------------------
            D           G             A           D
e----10-12-|14-9-10----|------9-10--|-12----9---|--------|
B-10-------|--------10-|------------|----12-----|--------|
G----------|-----------|-12---------|--------12-|-11-----|
D----------|-----------|------------|-----------|--------|
A----------|-----------|------------|-----------|--------|
E----------|-----------|------------|-----------|--------|

..D       Bm           G                   A       D                   

e-----9-|-10----9----|-------------------|-------|-------------------------|
B---12--|------------|-------------------|-------|-------------------------|
G-11----|----11---11-|-------12-11-------|-------|-------------------------|
D-------|------------|-12----------14-12-|-11-11-|-12---11h12-14--14-12~---|
A-------|------------|-------------------|-------|-------------------------|
E-------|------------|-------------------|-------|-------------------------|

Repeat chorus

Verse 3:
--------
       D                G               A               D
If I asked would you say yes, together we're the very best
            Bm             G         G        A    D 
I know that I am truly blesssed, Everyday I love you
   Bm             G         G        A    D        
I now give you my best , Everyday I love you.

Outro:
------
            D           G             A           D
e----10-12-|14-9-10----|------9-10--|-12----9---|--------|
B-10-------|--------10-|------------|----12-----|--------|
G----------|-----------|-12---------|--------12-|-11-----|
D----------|-----------|------------|-----------|--------|
A----------|-----------|------------|-----------|--------|
E----------|-----------|------------|-----------|--------|





Comments


Popular Raul Castro tabs & chords
214 Chords
Cool Change Chords
Glory Of Love Chords
Hanggang Kailan Chords
Just Tell Me You Love Me Chords
214 Ukulele
Beauty And Madness Ukulele
Cool Change Ukulele
Hanggang Kailan Ukulele
How Can I Fall Ukulele


Song lyrics



↑ Back to top | Tablatures and chords are parodies/interpretations of the original songs. You may use it for private study, scholarship, research or language learning purposes only
© 2014 AZChords.com Contact us | Privacy policy | DMCA | Add/correct tabs | Request tabs | Top 50 tabs