» » »

Ratt, Round N Round Bass tabs (ver.2)

Artists:  A B C D E F G H I J K L M N O P Q R S T U V W X Y Z # 

Round N Round Bass tabs (ver.2)

Ratt Tabs
Rating:
0/5 (0 votes)
Hard to play? Try these video lessons and learn fast.
                
ROUND AND ROUND (Bassline)
As recorded by Ratt
(From the 1984 Album OUT OF THE CELLAR)

	

Words and Music by Ratt
Arranged by Ratt

Gtr I (Eb Ab Db Gb) - 'Untitled'

 Intro
  Moderate Rock Q=128
 4/4
  Gtr I
  E E E E E E E E   E E E E E E E E   E E E E E E E E   E E E E E E E E
|-----------------|-----------------|-----------------|-----------------|
|-----------------|-----------------|-----------------|-----------------|
|-----------------|-------2-3-5-3-3-|-3-3-3-3-3-3-3-3-|-3-3-3-3-5-5-5-5-|
|-0-0-0-0-0-0-0-0-|-0-3-5-----------|-----------------|-----------------|


  E E E E E E E E   E E E E E E E E   E E E E E E E E   E E E E E E E E
|-----------------|-----------------|-----------------|-----------------||
|-----------------|-----------------|-----------------|-----------------||
|-----------------|-------2-3-5-3-3-|-3-3-3-3-3-3-3-3-|-3-3-3-3-5-5-5-5-||
|-0-0-0-0-0-0-0-0-|-0-3-5-----------|-----------------|-----------------||


   1st, 2nd, 3rd Verses
    $
    Q  Q  Q  Q    Q  Q  Q  E E   Q  Q  Q  Q    Q  Q  Q  Q
||--------------|--------------|-------------|--------------|
||o-------------|--------------|-------------|--------------|
||o-------------|--------------|-------------|--------------|
||--0--0--0--0--|-0--0--0--0-2-|-3--3--3--3--|-3--3--3--5---|


                                    To Coda
  Q  Q  Q  Q    Q  Q  Q  E E   Q  Q  Q  Q    Q  Q  Q  Q
|-------------|--------------|-------------|-------------|
|-------------|--------------|-------------|-------------|
|-------------|--------------|-------------|-------------|
|-0--0--0--0--|-0--0--0--0-2-|-3--3--3--3--|-3--3--3--5--|


  Q  Q  Q  Q    Q  Q  Q  E E   Q  Q  Q  Q    Q  Q  Q  Q
|-------------|--------------|-------------|-------------|
|-------------|--------------|-------------|-------------|
|-------------|--------------|-------------|-------------|
|-0--0--0--0--|-0--0--0--0-2-|-3--3--3--3--|-3--3--3--5--|


  Q  Q  Q  Q    Q  Q  Q  E E   Q  Q  Q  Q    Q  Q  Q  Q
|-------------|--------------|-------------|-------------||
|-------------|--------------|-------------|-------------||
|-------------|--------------|-------------|-------------||
|-0--0--0--0--|-0--0--0--0-2-|-3--3--3--3--|-3--3--3--5--||


 Pre-Chorus
  Q  Q  Q  Q    E E E E E E E E   E E E E E E E E   E E E E E E E E
|-------------|-----------------|-----------------|-----------------|
|-------------|-----------------|-----------------|-----------------|
|-5--5--5--4--|-0-0-0-0-0-0-0-0-|-----------------|---------2-3-5-3-|
|-------------|-----------------|-0-0-0-0-0-0-3-5-|-0-0-3-5---------|


  Q  Q  Q  Q    E E E E E E E E   W          E  H..
|-------------|-----------------|----------|-----------|
|-------------|-----------------|----------|-----------|
|-5--5--5--4--|-0-0-0-0-0-0-0-0-|-2--------|-2s14------|
|-------------|-----------------|----------|-----------|


   E H..         E  Q.   E E  E E
|--------------|------------------||
|--------------|------------------||
|-14s2---------|-2s14-------------||
|--------------|---------7---10---||


 Chorus
  $$
  E E E E E E E E   E E E E E E E E   E E E E E E E E   E E E E E E E E
|-----------------|-----------------|-----------------|-----------------|
|-----------------|-----------------|-----------------|-----------------|
|-----------------|-------2-3-5-3-3-|-3-3-3-3-3-3-3-3-|-3-3-3-3-5-5-5-5-|
|-0-0-0-0-0-0-0-0-|-0-3-5-----------|-----------------|-----------------|


                                                          To Dbl. Coda
  E E E E E E E E   E E E E E E E E   E E E E E E E E   E E E E E E E E
|-----------------|-----------------|-----------------|------------------||
|-----------------|-----------------|-----------------|-----------------o||
|-----------------|-------2-3-5-3-3-|-3-3-3-3-3-3-3-3-|-3-3-3-3-5-5-5-5-o||
|-0-0-0-0-0-0-0-0-|-0-3-5-----------|-----------------|------------------||


 Guitar Solo
  E E E E E E E E   E E E E E E E E   E E E E E E E E   E E E E E E E E
|-----------------|-----------------|-----------------|-----------------|
|-----------------|-----------------|-----------------|-----------------|
|-0-0-0-0-0-0-0-0-|-0-0-0-0-0-0-0-0-|-0-0-0-0-0-0-0-0-|-0-0-0-0-----5---|
|-----------------|-----------------|-----------------|---------3-3---3-|


  E E E E E E E E   E E E E E E E E   E E E E E E E E   E E E E E E E E
|-----------------|-----------------|-----------------|-----------------|
|-----------------|-----------------|-----------------|-----------------|
|-0-0-0-0-0-0-0-0-|-0-0-0-0-0-0-0---|-0-0-0-0-0-0-0-0-|-0-0-0-0-0-------|
|-----------------|---------------3-|-----------------|-----------3-3-3-|


  E E E E E E E E   E E E E E E E E   E E E E E E E E   E E E E E E E E
|-----------------|-----------------|-----------------|-----------------|
|-----------------|-----------------|-----------------|-----------------|
|-----------------|-----------------|-0-0-0-0-0-0-0-0-|-0-0-0-0-0-------|
|-1-1-1-1-1-1-1-1-|-3-3-3-3-3-3-3-3-|-----------------|-----------3-3-3-|


  E E E E E E E E   E E E E E E E E   E E E E E E E E   E E E E E E E E
|-----------------|-----------------|-----------------|-----------------|
|-----------------|-----------------|-----------------|-----------------|
|-----------------|-----------------|-0-0-0-0-0-0-0-0-|-0-0-0-0-0-------|
|-1-1-1-1-1-1-1-1-|-3-3-3-3-3-3-3-3-|-----------------|-----------3-3-3-|


  E E E E E E E E   E E E E E E E E
|-----------------|-----------------|
|-----------------|-----------------|
|-----------------|-----------------|
|-1-1-1-1-1-1-1-1-|-0-0-0-0-0-0-0-0-|


                                 D.S. al Coda
  E E E E E E E E   E E E E E E E E   E E Q  H
|-----------------|-----------------|-------------||
|-----------------|-----------------|-------------||
|-3-3-3-3-3-3-3-3-|-----------------|-------------||
|-----------------|-3-3-3-3-3-3-3-3-|-3-----------||


  &
                   |-3-| |-3-| |-3-| |-3-|   |-3-| |-3-| |-3-| |-3-|
  Q  Q  Q  E S S   E E E E E E E E E E E E   E E E E E E E E E E E E
|----------------|-------------------------|-------------------------|
|----------------|-------------------------|-------------------------|
|----------------|-------------------------|-------------------------|
|-3--3--3--5-7-7-|-7-7-7-7-7-7-7-7-7-7-7-7-|-5-5-5-5-5-5-5-5-5-5-5-5-|


                       D.S.S. al Dbl. Coda
  |-3-| |-3-| |-3-| |-3-|
  E E E E E E E E E E E E   E E Q  E E  E E
|-------------------------|-----------------||
|-------------------------|-----------------||
|-------------------------|-----------------||
|-7-7-7-7-7-7-7-7-7-7-7-7-|-7------7---10---||


 Out-Chorus
  &&
  E E E E E E E E   E E E E E E E E   E E E E E E E E   E E E E E E E E
|-----------------|-----------------|-----------------|-----------------|
|-----------------|-----------------|-----------------|-----------------|
|-----------------|-------2-3-5-3-3-|-3-3-3-2-2-2-2-0-|-0-0-0-0---------|
|-0-0-0-0-0-0-0-0-|-0-3-5-----------|-----------------|---------3-5-0-0-|


  E E E E E E E E   E E E E E E E E   E E E E E E E E   E E E E E E E E
|-----------------|-----------------|-----------------|-----------------||
|-----------------|-----------------|-----------------|-----------------||
|-----------------|-------2-3-5-3-3-|-3-3-3-3-3-3-3-3-|-3-3-3-3-3-5-5-7-||
|-0-0-0-0-0-0-0-0-|-0-3-5-----------|-----------------|-----------------||


 Out-Solo
  E E E E E E E E   E E E E E E E E   E E E E E E E E   E E E E E E E E
|-----------------|-----------------|-----------------|-----------------|
|-----------------|-----------------|-----------------|-----------------|
|-----------------|-------2-3-5-3-3-|-3-3-3-3-3-3-3-3-|-3-3-3-3-5-5-5-5-|
|-0-0-0-0-0-0-0-0-|-0-3-5-----------|-----------------|-----------------|


  E E E E E E E E   E E E E E E E E   E E E E E E E E   E E E E E E E E
|-----------------|-----------------|-----------------|-----------------|
|-----------------|-----------------|-----------------|-----------------|
|-----------------|-------2-3-5-3-3-|-3-3-3-3-3-3-3-3-|-3-3-3-3-5-5-5-5-|
|-0-0-0-0-0-0-0-0-|-0-3-5-----------|-----------------|-----------------|


  E E E E E E E E   E E E E E E E E   E E E E E E E E   E E E E E E E E
|-----------------|-----------------|-----------------|-----------------*|
|-----------------|-----------------|-----------------|-----------------*|
|-----------------|-------2-3-5-3-3-|-3-3-3-2-2-2-2-0-|-0-0-0-0---------*|
|-0-0-0-0-0-0-0-0-|-0-3-5-----------|-----------------|---------3-2-3-0-*|



Duration Legend
---------------
W - whole; H - half; Q - quarter; E - 8th; S - 16th; T - 32nd; X - 64th; a - acciaccatura
+ - note tied to previous; . - note dotted; .. - note double dotted
Uncapitalized letters represent notes that are staccato (1/2 duration)
Irregular groupings are notated above the duration line
Duration letters will always appear directly above the note/fret number it represents the
duration for.  Duration letters with no fret number below them represent rests.  Multi-
bar rests are notated in the form Wxn, where n is the number of bars to rest for.  Low
melody durations appear below the staff

Tablature Legend
----------------
 h   - hammer-on
 p   - pull-off
 b   - bend
 pb  - pre-bend
 r   - bend release (if no number after the r, then release immediately)
 /\  - slide into or out of (from/to "nowhere")
 s   - legato slide
 S   - shift slide
 - natural harmonic
[n]  - artificial harmonic
n(n) - tapped harmonic
 ~   - vibrato
 tr  - trill
 T   - tap
 TP  - trem. picking
 PM  - palm muting
\n/  - tremolo bar dip; n = amount to dip
 \n  - tremolo bar down
 n/  - tremolo bar up
/n\  - tremolo bar inverted dip
 =   - hold bend; also acts as connecting device for hammers/pulls
 <> - volume swell (louder/softer)
 x   - on rhythm slash represents muted slash
 o   - on rhythm slash represents single note slash

Misc Legend
-----------
 |  - bar
||  - double bar
||o - repeat start
o|| - repeat end
*|  - double bar (ending)
 :  - bar (freetime)
 $  - Segno
 &  - Coda
Tempo markers -  = BPM(8/16=s8/s16), where s8 = swing 8ths, s16 = swing 16ths
            

comments powered by Disqus
↑ Back to top | Ratt Bass for Round N Round. Lyrics for acoustic guitar and electric guitar. Tablatures and chords are parodies/interpretations of the original songs. You may use it for private study, scholarship, research or language learning purposes only