>
 >
Round N Round

Round N Round Guitar Tabs

Ratt - Round N Round chords, tabs, tablatures, lyrics

Guitar lessons | Add/correct | Request | Top 50 tabs Artists:  A B C D E F G H I J K L M N O P Q R S T U V W X Y Z 0-9

Round N Round Guitar Tabs – Ratt

CD, Sheet music, Poster

Do you like Round N Round? Share with your friends now
Bass TabsBass Tabs v2Tabs
#------------------------------------------------------------------------------##

                                 ROUND AND ROUND
                               As recorded by Ratt
                     (From the 1984 Album OUT OF THE CELLAR)

Words and Music by Ratt
Arranged by Ratt


Gtr I (E A D G B E) - 'Warren DeMartini'
Gtr II (E A D G B E) - 'Robin Crosby'
Gtr III (E A D G B E) - 'Overdub Lead'

 Intro
  Moderate Rock Q=128
  E5           Em                          C                               Esus4
 4/4
  Gtr I
     PM------|                               PM------|     PM|   PM
  Q  E E E E E E   +E  E E E E E E E   +E  E E E E E E E   E E E E E E  E   E
|----------------|-------------------|-------------------|--------------------|
|--------------8-|-(8)-8-8---8-7---7-|-(7)-5-----------7-|-----5---7h8-----10-|
|-9------------9-|-(9)-9-7---7-7---5-|-(5)-5-----------5-|-----5---7-7------9-|
|-9--------------|-------------------|-------------------|-------0-----(0)----|
|-7--------------|-------------------|-------3-3-3-3-3---|-3-3----------------|
|----0-0-0-0-0---|-------------------|-------------------|--------------------|
|
| Gtr II
|                                            PM------|
| Q  E E E E E E    E  E E E E E E E   +E  E E E E E E E   E E E E E E  E   E
|----------------|-------------------|-------------------|--------------------|
|-9------------8-|-----8-8---8-7---7-|-(7)-5-----------7-|---7-5---8-7-----10-|
|-9------------9-|-----9-9---9-7---7-|-(7)-5-----------5-|---5-5---7-7------9-|
|-9--------------|-----------------4-|-(4)-5-----------x-|---5-5---7-7------9-|
|-7--------------|-------------------|-------3-3-3-3-3---|--------------------|
|----0-0-0-0-0---|-------------------|-------------------|--------------------|


       E      Em      Dsus4     C
  PM|                                     PM------|                     ~~~
  E  E H    E E   E E E E E E E E   +E  E E E E E E E   E E E E E E  E  E
|---------------|-----------------|-------------------|--------------------||
|------9------8-|---8-8---8-7---7-|-(7)-5-----------7-|-----5---8-7--------||
|------9------9-|---9-7---7-7---5-|-(5)-5-----------5-|-----5---7-7--------||
|------9--------|-----------------|-------------------|-------0------------||
|------7--------|-----------------|-------3-3-3-3-3---|-3-3------------[5]-||
|-0--0------x---|-----------------|-------------------|--------------------||
|
|                                         PM------|
| E  E H    E E   E E E E E E E E   +E  E E E E E E E   E E E E E Q     E
|---------------|-----------------|-------------------|--------------------||
|---10-9------8-|---8-8---8-7---7-|-----5-----------7-|---7-5---8-7\-------||
|----9-9------9-|---9-7---7-7---7-|-(7)-5-----------5-|---5-5---7-7\-------||
|----9-9--------|---------------4-|-(4)-5-------------|---x-x---x----------||
|---------------|-----------------|-------3-3-3-3-3---|--------------------||
|---------------|-----------------|-------------------|-----------------0--||


   1st, 2nd, 3rd Verses
    $
                                        G5
     ~~~
    +Q   E E E E E E    E   E E E E E E E
||-------------------|----------------------|
||o------------------|----------------------|
||-------------------|----------------------|
||-------------------|----------------------|
||o-(5)--7---5-----5-|------5s4---4p2-0-----|
||---------x---x-x---|----------5-------3---|
|
|   +W                 +H..             S S
||-------------------|----------------------|
||o------------------|----------------------|
||-------------------|----------------------|
||-------------------|------------------5-5-|
||o------------------|------------------5-5-|
||--(0)--------------|-(0)--------------3-3-|


                                G5A5
  +E  E E E E E E E    E  E E E E E E E
|-------------------|-------------------|
|-------------------|-------------------|
|-------------------|-------------------|
|-------------------|-----------5-7---9-|
|-------5---4-----5-|-----4s5---5-7---7-|
|-(3)-x---x---x-x---|--x------0-----x---|
|
|                           PM|
|  W                  +Q    E E E E E E
|-------------------|-------------------|
|-------------------|-------------------|
|-------------------|-------------------|
|--5----------------|-(5)---------------|
|--5----------------|-(5)-------5-7-----|
|--3----------------|-(3)---3-0-3-5---0-|


                                        G5
             ~~~
  +E  E E E  Q   E E    E   E E E E E E E
|--------------------|----------------------|
|--------------------|----------------------|
|--------------------|----------------------|
|-(9)----------------|----------------------|
|-(7)---7---[5]----5-|------5s4---4p2-0-----|
|-----x---x------x---|----------5-------3---|
|
| +W                   +H..             S S
|--------------------|----------------------|
|--------------------|----------------------|
|--------------------|----------------------|
|--------------------|------------------5-5-|
|--------------------|------------------5-5-|
|-(0)----------------|-(0)--------------3-3-|


             To Coda
                                G5A5
  +E  E E E E E E E    E  E E E E E E E
|-------------------|-------------------|
|-------------------|-------------------|
|-------------------|-------------------|
|-------------------|-----------5-7---9-|
|-------5---4-----5-|-----4s2---5-7---7-|
|-(3)-x---x---x-x---|--x------0-----x---|
|
|                           PM|
|  W                  +Q    E E E E E E
|-------------------|-------------------|
|-------------------|-------------------|
|-------------------|-------------------|
|--5----------------|-(5)---------------|
|--5----------------|-(5)-------5-7-----|
|--3----------------|-(3)---3-0-3-5---0-|


             ~~~
  +E  E E E  Q   E E    E   E E E E E E E
|--------------------|----------------------|
|--------------------|----------------------|
|--------------------|----------------------|
|-(9)----------------|----------------------|
|-(7)---7---[5]----5-|------5s4---4p2-0-----|
|-----x---x------0---|----------5-------3---|
|
| +W                   +H..             S S
|--------------------|----------------------|
|--------------------|----------------------|
|--------------------|----------------------|
|--------------------|------------------x-x-|
|--------------------|------------------x-x-|
|-(0)----------------|-(0)--------------x-x-|


  G5                              A5  E5
  +E  E E E E E E E    E  E E E E E E E
|-------------------|-------------------|
|-------------------|-------------------|
|-------------------|-------------------|
|-------------------|-----------5-7---9-|
|-------5---4-----5-|-----4s2---5-7---7-|
|-(3)-x---x---x-x---|--x------0-----x---|
|
|  W                  +H        E E E E
|-------------------|-------------------|
|-------------------|-------------------|
|-------------------|-------------2-----|
|--5----------------|-(5)---------2---2-|
|--5----------------|-(5)---------0---2-|
|--3----------------|-(3)-------------0-|


             ~~~
  +E  E E E  Q   E E    E   E E E E E E E
|--------------------|----------------------|
|--------------------|----------------------|
|--------------------|----------------------|
|-(9)----------------|----------------------|
|-(7)---7---[5]----5-|------5s4---4p2-0-----|
|-----x---x------0---|----------5-------3---|
|
| +W                   +H..             S S
|--------------------|----------------------|
|--------------------|----------------------|
|--------------------|----------------------|
|-(2)----------------|-(2)------------------|
|-(2)----------------|-(2)--------------x-x-|
|-(0)----------------|-(0)--------------x-x-|


  G5                              A5
  +E  E E E E E E E    E  E E E E E Q
|-------------------|------------------||
|-------------------|------------------||
|-------------------|------------------||
|-------------------|-----------0h2----||
|-------5---4-----5-|-----4s2---0h2----||
|-(3)-x---x---x-x---|--x------0--------||
|
|  W                  +H        E E Q
|-------------------|------------------||
|-------------------|------------------||
|-------------------|-------------2----||
|--5----------------|-(5)---------2----||
|--5----------------|-(5)---------0----||
|--3----------------|-(3)--------------||


 Pre-Chorus
  D5      A/C#A5                        E5        Esus4E         Esus4   E
  Gtrs I, II
                      PM--------|
  Q  Q  E E E E   +E  E E E E E E  E    Q  Q   E   E E E   +E  E  E E  E E Q
|---------------|-----0-----0-----(0)-|------------------|---------------------|
|---------------|-------0-----0-------|-----------10---9-|-(9)---10---10-9-----|
|-7--7----------|---------6-----6-----|-9--9-------9---9-|-(9)----9----9-9-----|
|-7--7----7---2-|-(2)-----------------|-9--9-------9---9-|-(9)----9----9-9-----|
|-5--5----4---0-|-(0)-----------------|-7--7-------7---7-|-(7)----7----7-7-7\--|
|---------------|------------------0--|-------(0)--------|-----0---------------|


  D5      A/C#A5
  Gtr I
                      PM-------------
  Q  Q  E E E E   +E  E E E E E E E
|---------------|-----0-----0-----0-|
|---------------|-------0-----0-----|
|-7--7----------|---------6-----6---|
|-7--7----7---2-|-(2)---------------|
|-5--5----4---0-|-(0)---------------|
|---------------|-------------------|
|
| Gtr II
|                     PM-------------
| Q  Q  E E E E   +E  E E E E E E E
|---------------|-----0-----0-----0-|
|---------------|-------0-----0-----|
|-7--7----------|---------6-----6---|
|-7--7----7---2-|-(2)---------------|
|-5--5----4---0-|-(0)---------------|
|---------------|-------------------|


 --------------------------------------------|
   e  e  e e  e  e e  e    e  e  e e  e  e e  e
|-----0-------0-------0-|-----0-------0-------0-|
|----------4-------4----|----------4-------4----|
|--------4-------4------|--------4-------4------|
|-----------------------|-----------------------|
|--2--------------------|--2--------------------|
|-----------------------|-----------------------|
|
|--------------------------------------------|
|  e  e  e e  e  e e  e    e  e  e e  e  e e  e
|-----------------------|-----------------------|
|----10----9-10----9-10-|----10----9-10----9-10-|
|-11----11------11------|-11----11------11------|
|-----------------------|-----------------------|
|-----------------------|-----------------------|
|-----------------------|-----------------------|


                                     B5  D5
   PM------------------------------|
   e  e  e e  e  e e  e    e  e  e e E E E E
|-----0-------0-------0-|-----0--------------||
|----------4-------4----|----------4---------||
|--------4-------4------|--------4---4---7---||
|-----------------------|------------4---7---||
|--2--------------------|--2---------2---5---||
|-----------------------|--------------------||
|
|  PM------------------------------|
|  e  e  e e  e  e e  e    e  e  e e E E E E
|-----------------------|--------------------||
|----10----9-10----9-10-|----10----9---------||
|-11----11------11------|-11----11-----------||
|-----------------------|------------4---7---||
|-----------------------|------------2---5---||
|-----------------------|--------------------||


 Chorus
  $$
  E5            Em        G5/D  D   C                           C     G5/D  A5/E
      PM------|                               PM------|     PM|   PM
  Q   E E E E E E   +E  E E E E E E E   +E  E E E E E E E   E E E E E E  E   E
|-----------------|-------------------|-------------------|--------------------|
|---------------8-|-(8)-8-8---8-7---7-|-(7)-5-----------7-|-----5---7h8-----10-|
|-9-------------9-|-(9)-9-7---7-7---5-|-(5)-5-----------5-|-----5---7-7------9-|
|-9---------------|-------------------|-------------------|-------0-----(0)----|
|-7---------------|-------------------|-------3-3-3-3-3---|-3-3----------------|
|-----0-0-0-0-0---|-------------------|-------------------|--------------------|
|
| ~~                                          PM------|
| H.          E E    E  E E E E E E E   +E  E E E E E E E   E E E E E E  E   E
|-----------------|-------------------|-------------------|--------------------|
|-9-------------8-|-----8-8---8-7---7-|-(7)-5-----------7-|---7-5---8-7-----10-|
|-9-------------9-|-----9-9---9-7---7-|-(7)-5-----------5-|---5-5---7-7------9-|
|-----------------|-----------------4-|-(4)-5-----------x-|---5-5---7-7------9-|
|-----------------|-------------------|-------3-3-3-3-3---|--------------------|
|-----------------|-------------------|-------------------|--------------------|


                                          To Dbl. Coda
       E      Em      G5/D  D           C
  PM|                                     PM------|
  E  E H    E E   E E E E E E E E   +E  E E E E E E E
|---------------|-----------------|-------------------|
|------9------8-|---8-8---8-7---7-|-(7)-5-----------7-|
|------9------9-|---9-7---7-7---5-|-(5)-5-----------5-|
|------9--------|-----------------|-------------------|
|------7--------|-----------------|-------3-3-3-3-3---|
|-0--0------x---|-----------------|-------------------|
|
|                                         PM------|
| E  E H    E E   E E E E E E E E   +E  E E E E E E E
|---------------|-----------------|-------------------|
|---10-9------8-|---8-8---8-7---7-|-----5-----------7-|
|----9-9------9-|---9-7---7-7---7-|-(7)-5-----------5-|
|----9-9--------|---------------4-|-(4)-5-------------|
|---------------|-----------------|-------3-3-3-3-3---|
|---------------|-----------------|-------------------|


  1.                     2.
      C
  PM|             ~~~    PM|   PM
  E E E E E E  E  E      E E E E E E E  E
|---------------------||---------------------||
|-----5---8-7--------o||-----5---8-7---17b20-||
|-----5---7-7---------||-----5---7-7---------||
|-------0-------------||-------0-------------||
|-3-3------------[5]-o||-3-3-----------------||
|---------------------||---------------------||
|
| E E E E E Q     E      E E E E E Q   +E
|---------------------||---------------------||
|---7-5---8-7\-------o||---7-5---8-7---(7)\--||
|---5-5---7-7\--------||---5-5---7-7---(7)\--||
|---x-x---x-----------||---x-x---x-----------||
|--------------------o||---------------------||
|-----------------0---||---------------------||


 Guitar Solo
  A5
   +H.              S     +E        +S
|------------------------------------------|
|-(17)b20----------20b22r(20)b22r==(20)b22r|
|------------------------------------------|
|------------------------------------------|
|------------------------------------------|
|------------------------------------------|
|
|          PM-------------------------------
|   Q      E E E E  E            E
|------------------------------------------|
|------------------------------------------|
|---2--------------------------------------|
|---2--------------------------------------|
|---0------0-0-0-0--0------------0---------|
|------------------------------------------|


                             G5/A     D/A        A5
                                                  ~~~
   +S      +E     S  Q        +Q         +E       E
|-------------------20b22====(20)b23====(20)b24==20r-|
|-(20)b22r(20)s==17----------------------------------|
|----------------------------------------------------|
|----------------------------------------------------|
|----------------------------------------------------|
|----------------------------------------------------|
|
|--------------------------|
|   E          E     E     E   E      E   E       E
|----------------------------------------------------|
|------------------------------8------7--------------|
|------------------------------7------7-----------2--|
|------------------------------7------7-----------2--|
|---0----------0-----0-----0----------------------0--|
|----------------------------------------------------|


    ~~~~         ~~~
        |--3--|         |------6-------|  |------6-------|
   +E   S  S  S  E.  S  S  S  S  S  S  S  S  S  S  S  S  S
|-(20)-17-------20--17----17h20-17h20-17----20----17-------|
|---------20p17--------20----------------20----20----20p17-|
|----------------------------------------------------------|
|----------------------------------------------------------|
|----------------------------------------------------------|
|----------------------------------------------------------|
|
|  +W
|----------------------------------------------------------|
|----------------------------------------------------------|
|--(2)-----------------------------------------------------|
|--(2)-----------------------------------------------------|
|--(0)-----------------------------------------------------|
|----------------------------------------------------------|


  A5                          D5
                       \2
                   ~~~~~~~
   |-------6-------|
   S   S  S  S  S  S  +Q    Q   E  E
|----------------------------------------|
|-----17--------------------------[7]b8r=|
|-20-----20p17----17-(17)----------------|
|--------------19------------------------|
|----------------------------------------|
|---------------------------x------------|
|
|                         PM       PM
|  Q.                     E E E E  E
|----------------------------------------|
|-----------------------------3----------|
|--2--------------------------2----------|
|--2--------------------------0----------|
|--0-------------------------------------|
|-------------------------3--------3-----|


  A5                                                G5/A D/A  G5
                      ~~~~~~               ~~~~~~~~~~~~~~
                                                               |--3--|
  +E    +E  E S S S S E +E   E    S  S  S  S  +Q     +E  E  E  S  S  S
|------------------------------|---------------------------------------|
|-(7)b8-(7)--------------------|---------------------------------------|
|-----------5---5---4-------/9-|-14s=9s14p12-(12)---(12)-x-13-13h17p13-|
|-------------x-------7-(7)----|---------------------------------------|
|------------------------------|---------------------------------------|
|------------------------------|---------------------------------------|
|
|                                              PM-|
|  W                             +Q            E  E   E  E  E  E
|------------------------------|---------------------------------------|
|------------------------------|----------------------8--7-------------|
|--2---------------------------|-(2)------------------7--7-------------|
|--2---------------------------|-(2)------------------7--7-----5-------|
|--0---------------------------|-(0)-----------0--0------------5-------|
|------------------------------|-------------------------------3-------|


  A5                                         A5
   S   S  S  S  S  S  S  S  S  S  S  S  S  S  S  S
|--------------------------------------------------|
|-20--20p13-17-17p13-20-20p13-17-17p13-20-20p17----|
|-----------------------------------------------19-|
|--------------------------------------------------|
|--------------------------------------------------|
|--------------------------------------------------|
|
|  H.                                   E     E
|--------------------------------------------------|
|--------------------------------------------------|
|--2------------------------------------------2----|
|--2------------------------------------------2----|
|--0------------------------------------------0----|
|--------------------------------------------------|


  A5                      A5       G5          G5
                            ~~~~~~~~~~~~~~~~~~~
   S  S  S  S  S  S  S  S  +Q         +Q
|-17---------------------------------------------|
|----20p17----17---------------------------------|
|----------21----20p19s17-(17tr16)---(17tr16)\---|
|------------------------------------------------|
|------------------------------------------------|
|------------------------------------------------|
|
|  H                        E      E   E       E
|------------------------------------------------|
|------------------------------------------------|
|--2------------------------2--------------------|
|--2------------------------2------5-----------5-|
|--0------------------------0------5-----------5-|
|----------------------------------3-----------3-|


  F5                           G5                      A5
  Gtrs I, III
                                ~~~                      ~~~~
   Q       H            Q       H.           S  S  E    +H        +Q     Q
|-19b20===19pb20-------19r---|-19-----------17h19p17-|-(17)------(17)\-------|
|-20b22===20pb22-------20r---|-20-----------17h20p17-|-(17)------(17)\-------|
|----------------------------|-----------------------|-----------------------|
|----------------------------|-----------------------|-----------------------|
|----------------------------|-----------------------|-----------------------|
|----------------------------|-----------------------|-----------------------|
|
| Gtr II
|          PM--------------|        PM------------|          PM------------|
|  Q       E     E E E  E  E    Q   E E E E  E     E     Q   E E   E   E E E
|----------------------------|-----------------------|-----------------------|
|----------------------------|-----------------------|-----------------------|
|----------------------------|-----------------------|-----------------------|
|--3-------------------------|--5--------------------|---7-------------------|
|--3-------------------------|--5--------------------|---7-------------------|
|--1-------1-----1-1-1--1--1-|--3---3-3-3-3--3-----3-|---5---5-5---5---5-5-5-|


  A5                      A5    G5
  Gtr I
   S  S  S  S  S  S  S  S  S  S  S  S  S   S  S  S
|-12h13p12----12-----------------------------------|
|----------15----15p13p12-13p12----12--------------|
|-------------------------------14----14p=12----12-|
|--------------------------------------------15----|
|--------------------------------------------------|
|--------------------------------------------------|
|
| Gtr III
|  S  S  S  S  S  S  S  S  S  S  S  S  S   S  S  S
|-15h17p15----15-----------------------------------|
|----------18----18p17p15-17p15----15--------------|
|-------------------------------17----17p=16-14-16-|
|--------------------------------------------------|
|--------------------------------------------------|
|--------------------------------------------------|
|
| Gtr II
|  E     E     Q           E     E    +Q
|--------------------------------------------------|
|--------------------------------------------------|
|--2-----------------------2-----------------------|
|--2-----------------------2-----5----(5)----------|
|--0-----------------------0-----5----(5)----------|
|--------------------------------3----(3)----------|


  F5                     G5
   ~~~~~~~~~~~~           ~~~~~~~~~~~~
   H       +E   Q    E    H       +E   Q    E
|----------------------|-----------------------|
|--------------12---13-|--------------12---13--|
|-14------(14)---------|-14------(14)----------|
|----------------------|-----------------------|
|----------------------|-----------------------|
|----------------------|-----------------------|
|
|  ~~~~~~~~~~~~           ~~~~~~~~~~~~
|  H       +E   Q    E    H       +E   Q    E
|----------------------|-----------------------|
|--------------15---17-|--------------15---17--|
|-14------(14)---------|-17------(17)----------|
|----------------------|-----------------------|
|----------------------|-----------------------|
|----------------------|-----------------------|
|
|     PM------------|        PM------------|
|  Q  E E   E   E E  E    Q  E E   E   E E  E
|----------------------|-----------------------|
|----------------------|-----------------------|
|----------------------|-----------------------|
|--3-------------------|--5--------------------|
|--3-------------------|--5--------------------|
|--1--1-1---1---1-1--1-|--3--3-3---3---3-3--3--|


  A5                            A5 G5         F5
   \2
                        PM------|
   H.          Q     E  E  E  E  E  E  E  E    H       +E   E  Q
|------------------|------------------------|--------------------------|
|------------------|------------12-15-13-12-|-17------(17)-20-20b22----|
|-14---------------|---------12-------------|--------------------------|
|------------------|------14----------------|--------------------------|
|------------------|---15-------------------|--------------------------|
|------------------|------------------------|--------------------------|
|
|  \2
|                       PM------|
|  H.          Q     E  E  E  E  E  E  E  E    H       +E   E  Q
|------------------|------------------------|-17------(17)-19-19pb20---|
|------------------|---------------18-17----|--------------------------|
|-17---------------|---------17-19-------19-|--------------------------|
|------------------|------17----------------|--------------------------|
|------------------|---19-------------------|--------------------------|
|------------------|------------------------|--------------------------|
|
|      PM--------------------|                    PM-----------------|
|  Q   E E E E E E   E  E  E  E  E  E  E  E    Q  E E   E   E  E     E
|------------------|------------------------|--------------------------|
|------------------|------------------------|--------------------------|
|--2---------------|-------------2----------|--------------------------|
|--2---------------|-------------2--5-----5-|--3-----------------------|
|--0---0-0-0-0-0-0-|-0--0--0--0--0--5-----5-|--3-----------------------|
|------------------|----------------3-----3-|--1--1-1---1---1--1-----1-|


  E5                   C5
   ~~~
   H.           E  E    Q       Q        Q        Q
|--------------------|---------------------------------|
|-20-----------17-20-|-20b22===20pb22---20pb22---20r---|
|--------------------|---------------------------------|
|--------------------|---------------------------------|
|--------------------|---------------------------------|
|--------------------|---------------------------------|
|
|  ~~~
|  H.           E  E    Q       Q        Q        Q
|-19-----------17-19-|-19b20===19pb20---19pb20---19r---|
|--------------------|---------------------------------|
|--------------------|---------------------------------|
|--------------------|---------------------------------|
|--------------------|---------------------------------|
|--------------------|---------------------------------|
|
|      PM---------|             PM-------------------|
|  Q   E E E E  E  E    Q       E     E  E     E  E  E
|--------------------|---------------------------------|
|--------------------|---------------------------------|
|--------------------|--5------------------------------|
|--2-----------------|--5------------------------------|
|--2-----------------|--3-------3-----3--3-----3--3--3-|
|--0---0-0-0-0--0--0-|---------------------------------|


                                                      D.S. al Coda
  G/B
   H           S  S  E  +E     S  S    S  S  E  E  E  +Q    E  E
|-------------17--------------------|--------------------------------||
|-20-------------20p17-(17)---17h20-|-20p17--------------------------||
|-----------------------------------|-------19-17-19-(19)\-----------||
|-----------------------------------|--------------------------------||
|-----------------------------------|-------------------------[5]----||
|-----------------------------------|--------------------------------||
|
|  H           S  S  E  +Q             S  S  E  E  E  +Q    E  E
|-19----------20p19p17-(17)---------|-19p17--------------------------||
|-----------------------------------|-------20-17-20-(20)------------||
|-----------------------------------|--------------------------------||
|-----------------------------------|--------------------------------||
|-----------------------------------|--------------------------------||
|-----------------------------------|--------------------------0-----||
|
|  Q  S S S S  Q         S  S  S  S    E     E  Q      H
|-----------------------------------|--------------------------------||
|-----------------------------------|--------------------------------||
|-----------------------------------|--------------------------------||
|--5--5-5---5--5---------5--5-----5-|--5-----------------------------||
|--2--x-2---2--2---------x--2-----2-|--2-----------------------------||
|-----------------------------------|--------------------------------||


  &
  G5        G5A5  B5
  Gtr I
   E  E E E E E E E   W
|-------------------|------|
|-------------------|------|
|-------------------|------|
|-----------5-7-4-4-|-4----|
|-----4s2---5-7-2-2-|-2----|
|--x------0---------|------|
|
| Gtr II
|  H        E E E E   W
|-------------------|------|
|-------------------|------|
|-------------------|------|
|-(5)-------5-7-7-9-|-9----|
|-(5)-------5-7-7-9-|-9----|
|-(3)-------3-5-5-7-|-7----|


                                D.S.S. al Dbl. Coda
        E5        B5                       B5  D5
  Gtrs I, II
  E S S H.        H.      +E  S S   E E Q  E E E E
|-------0-------|-----------------|-----------------||
|-------0-------|-----------------|-----------------||
|-------4-------|-----------------|-----------------||
|-------2-------|-4-------(4)-4-4-|-4------4---7----||
|-0-0-0---------|-2-------(2)-2-2-|-2------2---5----||
|---------------|-----------------|-----------------||


 Out-Chorus
  &&
      C     G5/D   A5/E      E      Em            D   C5
  Gtr I
  PM|   PM
  E E E E E E   E   E   E  E H    E E   E E E E E E E E
|---------------------|---------------|-----------------|
|-----5---7h8------10-|---10-9------8-|---8-8---8-7-----|
|-----5---7-7-------9-|----9-9------9-|---9-7---7-7-----|
|-------0------(0)----|---------------|---------------5-|
|-3-3-----------------|---------------|---------------3-|
|---------------------|---------------|-----------------|
|
| Gtr II
| E E E E E Q       E   E  E H    E E   E E E E E E E E
|---------------------|---------------|-----------------|
|---7-5---8-7\--------|---10-9------8-|---8-8---8-7-----|
|---5-5---7-7\--------|----9-9------9-|---9-7---7-7---5-|
|---x-x---x-----------|----x-x------x-|---x-x---x-x---5-|
|---------------------|---------------|---------------3-|
|-------------------0-|---------------|-----------------|


          G/B       A5            G5A5  A5/B
      PM|       PM          PM  PM
  +E  E E E +E  E E E   +E  E E E E E E  E
|---------------------|--------------------||
|---------------------|-----------------10-||
|---------------------|------------------9-||
|-(5)-----5-(5)---5-2-|-(2)---2----------9-||
|-(3)-3-3-2-(2)-2-2-0-|-(0)-0-0-0-5-7------||
|---------------------|-----------3-5------||
|
| +Q    E E +Q    E E   +H        E E E  E
|---------------------|--------------------||
|---------------------|-----------------10-||
|-(5)---------------2-|-(2)--------------9-||
|-(5)---x-5-(5)---x-2-|-(2)--------------9-||
|-(3)---x-2-(2)---x-0-|-(0)-------5-7----7-||
|---------------------|-----------3-5------||


    A5/E/B    Em      G5/D  D           C
  Gtr I
                                          PM------| ~~~~~~~~~~~~      ~~~~~~~
  E  E H    E E   E E E E E E E E   +E  E E E E E E E   +Q    Q   +E  Q    E
|---------------|-----------------|-------------------|----------------------||
|---10-9------8-|---8-8---8-7---7-|-(7)-5-----------7-|-(7)s==5---(5)s3s===5-||
|----9-9------9-|---9-7---7-7---7-|-(7)-5-------------|----------------------||
|----9-9--------|-----------------|-------------------|----------------------||
|---------------|-----------------|-------3-3-3-3-3---|----------------------||
|---------------|-----------------|-------------------|----------------------||
|
| Gtr II
| PM|                                     PM------|
| E  E H    E E   E E E E E E E E   +E  E E E E E E E    E  E E E  E  E E  E
|---------------|-----------------|-------------------|----------------------||
|------9------8-|---8-8---8-7---7-|-(7)-5-------------|-------------------10-||
|------9------9-|---9-7---7-7---5-|-(5)-5-----------5-|--------------------9-||
|------9--------|-----------------|-----------------5-|-----5-5----5--7----9-||
|------7--------|-----------------|-------3-3-3-3-3-3-|-----3-3----3--5----7-||
|-0--0------x---|-----------------|-------------------|----------------------||


 Out-Solo
      A5/E/B                Em              G5/D        D            D/F#
   ~~~
                                            |-3-|
  +H        E  E     +Q          +E.    +S  S S S E +E  S S S    +S  +S  S
|-----------------------------|--------------------------------------------|
|-(5)---------10b11-(10)b12---|-(10)---(10)-8p5---5-(5)--------------------|
|-----------------------------|-----------------7-------7p4----------------|
|-----------------------------|-----------------------------7b9==(7)r(7)p5-|
|-----------------------------|--------------------------------------------|
|-----------------------------|--------------------------------------------|
|
|  E   E H            E     E     E  E      E     E  E  E   E         E
|-----------------------------|--------------------------------------------|
|-----10-9------------------8-|------8------8--------8--7-------------7----|
|------9-9------------------9-|------9------7--------7--7-------------7----|
|------9-9--------------------|---------------------------------------4----|
|-----------------------------|--------------------------------------------|
|-----------------------------|--------------------------------------------|


      C/G                            C
   E   E     +E  S S  S  S S  S  S S S S
|----------------------------------------|
|-----10b12-(10)-8-----------------------|
|------------------9-12-11p7-11-11s9p5-9-|
|----------------------------------------|
|----------------------------------------|
|----------------------------------------|
|
|             PM----------------|
| +E   E      E  E    E    E     E   E
|----------------------------------------|
|-(7)--5-----------------------------7---|
|-(7)--5-----------------------------5---|
|-(4)--5---------------------------------|
|-------------3--3----3----3-----3-------|
|----------------------------------------|


          C                                      D
                                                    |----6----|
  S S E   +T    +T    +S    +E   S  a  a      E.    S S S S S S
|--------------------------------------------10------------------|
|-------------------------------------10b12-(10)----7h8p7---7h9--|
|-9s7-7b9r(7)b9r(7)b9r(7)b9r(7)-----9--------(9)----------9------|
|-------------------------------(9)------------------------------|
|----------------------------------------------------------------|
|----------------------------------------------------------------|
|
| E   E    E                 E   E               Q        E
|----------------------------------------------------------------|
|-----7----5---------------------8---------------7\--------------|
|-----5----5---------------------7---------------7\--------------|
|-----x----x---------------------x-------------------------------|
|----------------------------------------------------------------|
|---------------------------------------------------------0------|


         A5/B   E/B                           Em
   |----6-----| |----6----| |----6----| |----6----|
   S S S  S S S S S S S S S S S S S S S S S S S S S
|---------------------------------------------------|
|-10p8p7----8p7-------------------------------------|
|---------9-----9p7s6h7p6---6-----------------------|
|-------------------------9---7h9p7s5h7p5h7p5s4h5h7-|
|---------------------------------------------------|
|---------------------------------------------------|
|
|  E      E     H                       E     E
|---------------------------------------------------|
|--------10-----9-----------------------------8-----|
|---------9-----9-----------------------------9-----|
|---------9-----9-----------------------------------|
|---------------------------------------------------|
|---------------------------------------------------|


            G5/D    D            D/F#
      ~~~~~~~~~~
  |-3-|
  S S S +E  +Q    E   S  S  E.      S
|-----------------------19-15b17--------|
|-------------------/17------------17---|
|---------------------------------------|
|-5-4-----------------------------------|
|-----7-(7)-(7)-------------------------|
|---------------------------------------|
|
| E      E   E  E E   E     E    E
|---------------------------------------|
|--------8---8----8---7----------7------|
|--------9---7----7---7----------7------|
|--------------------------------4------|
|---------------------------------------|
|---------------------------------------|


         C/G                                            C
                     |--3--|  |------6-------|  |------6-------|
   S   S  E     +E   S  S  S  S  S  S  S  S  S  S  S  S  S  S  S
|--------17b18-(17)-------17p12-15p12-------15-------------------|
|-15----------------17p16-------------16h17----16h17p15s12----12-|
|-----16---------------------------------------------------15----|
|----------------------------------------------------------------|
|----------------------------------------------------------------|
|----------------------------------------------------------------|
|
|                PM----------------------------|
| +E      E      E   E        E        E        E        E
|----------------------------------------------------------------|
|-(7)-----5----------------------------------------------7-------|
|-(7)-----5----------------------------------------------5-------|
|-(4)-----5------------------------------------------------------|
|----------------3---3--------3--------3--------3----------------|
|----------------------------------------------------------------|


                    C               G5/D
   |------6-------|
   S  S  S  S  S  S  S   S   S   S   S   S   E  E  E
|-------------------------------------------------16pb17==|
|-15p12----15----12---------------------------------------|
|-------15----15-------[12]-------------------------------|
|-------------------14------14-[12]----[12]---------------|
|-----------------------------------14------14\-----------|
|---------------------------------------------------------|
|
|  E        E        E       E       E       Q     E
|---------------------------------------------------------|
|-----------7--------5---------------8-------7\-----------|
|-----------5--------5---------------7-------7\-----------|
|-----------x--------x---------------x--------------------|
|---------------------------------------------------------|
|--------------------------------------------------0------|


       A5/B E/B                           Em
   +E   +E   E      +E   E      +E   S  S  S  S
|-(16)r(16)-16pb17r(16)-16pb17r(16)-12----16-12-|
|--------------------------------------15-------|
|-----------------------------------------------|
|-----------------------------------------------|
|-----------------------------------------------|
|-----------------------------------------------|
|
|   E    E   H                       E     E
|-----------------------------------------------|
|-------10---9-----------------------------8----|
|--------9---9-----------------------------9----|
|--------9---9----------------------------------|
|-----------------------------------------------|
|-----------------------------------------------|


              G5/D              D           C5/G
   S  S  S  S  S  S  S  S  S  S  S  S  S  S  S  S
|-15----12-----------------------------------------|
|----12----15-12----12-----------------------------|
|----------------15----15-12----15-14-12----12-----|
|----------------------------14----------14----14\-|
|--------------------------------------------------|
|--------------------------------------------------|
|
|  E     E     E     E     E     E     E     E
|--------------------------------------------------|
|--------8-----8-----------8-----7-----------------|
|--------9-----7-----------7-----7-----------5-----|
|--------------------------------------------5-----|
|--------------------------------------------------|
|--------------------------------------------------|


  C5                 G/B                     A5
                                                         ~~~
       |--3--|                                |--3--|
    E  S  S  S  S  S  S  S  S   S  S S  S  S  S  S  S    H.            +Q
|--------------------------------------------17-------|-22------------(22)\---*|
|-----------------------------------------------20p17-|-----------------------*|
|--------------------------------------14s19----------|-----------------------*|
|----------------------------------x------------------|-----------------------*|
|-/12-10-12-10-12-12-12-10-12--14-12------------------|-----------------------*|
|-----------------------------------------------------|-----------------------*|
|
|      PM------|                   PM                       PM    PM--------|
|   E  E        E     E    +E      E    E     E         +E  E E E E E   E   E
|-----------------------------------------------------|-----------------------*|
|-----------------------------------------------------|-----------------------*|
|-----------------------------------------------------|-----------------------*|
|---5-----------------5----(5)----------5-----2-------|-(2)---2---------------*|
|---3--3--------3-----2----(2)-----2----2-----0-------|-(0)-0-0---------------*|
|-----------------------------------------------------|-----------3-2---3---0-*|


Duration Legend
---------------
W - whole; H - half; Q - quarter; E - 8th; S - 16th; T - 32nd; X - 64th; a - acciaccatura
+ - note tied to previous; . - note dotted; .. - note double dotted
Uncapitalized letters represent notes that are staccato (1/2 duration)
Irregular groupings are notated above the duration line
Duration letters will always appear directly above the note/fret number it represents the
duration for.  Duration letters with no fret number below them represent rests.  Multi-
bar rests are notated in the form Wxn, where n is the number of bars to rest for.  Low
melody durations appear below the staff

Tablature Legend
----------------
 h   - hammer-on
 p   - pull-off
 b   - bend
 pb  - pre-bend
 r   - bend release (if no number after the r, then release immediately)
 /\  - slide into or out of (from/to "nowhere")
 s   - legato slide
 S   - shift slide
  - natural harmonic
[n]  - artificial harmonic
n(n) - tapped harmonic
 ~   - vibrato
 tr  - trill
 T   - tap
 TP  - trem. picking
 PM  - palm muting
\n/  - tremolo bar dip; n = amount to dip
 \n  - tremolo bar down
 n/  - tremolo bar up
/n\  - tremolo bar inverted dip
 =   - hold bend; also acts as connecting device for hammers/pulls
 <>  - volume swell (louder/softer)
 x   - on rhythm slash represents muted slash
 o   - on rhythm slash represents single note slash

Misc Legend
-----------
 |  - bar
||  - double bar
||o - repeat start
o|| - repeat end
*|  - double bar (ending)
 :  - bar (freetime)
 $  - Segno
 &  - Coda
Tempo markers -  = BPM(8/16=s8/s16), where s8 = swing 8ths, s16 = swing 16ths





Comments


Popular Ratt tabs & chords
Im Insane Bass Tabs
Lack Of Communication Bass Tabs
Morning After Bass Tabs
Round N Round 1 Bass Tabs
Wanted Man Bass Tabs
Best Of Me Intro Tabs
Enough Is Enough Tabs
Lack Of Communication Intro Tabs
Wanted Man Intro Tabs
Youre In Love Intro Tabs


Song lyrics



↑ Back to top | Tablatures and chords are parodies/interpretations of the original songs. You may use it for private study, scholarship, research or language learning purposes only
© 2014 AZChords.com Contact us | Privacy policy | DMCA | Add/correct tabs | Request tabs | Top 50 tabs