>
 >
Round And Round 1

Round And Round 1 Bass Tabs

Ratt - Round And Round 1 chords, tabs, tablatures, lyrics

Guitar lessons | Add/correct | Request | Top 50 tabs Artists:  A B C D E F G H I J K L M N O P Q R S T U V W X Y Z 0-9

Round And Round 1 Bass Tabs – Ratt

CD, Sheet music, Poster

Do you like Round And Round 1? Share with your friends now
Bass TabsBass Tabs v2ChordsDrum TabsUkulele
for Cre TAB


       Intro
Gb-----------------------------|--------------------------|-------------
Db-----------------------------|--------------------------|-------------
Ab-----------------------------|-----------2--3--5--3-----|--3--3--3----
Eb-----0--0--0--0--0--0--0--0--|--0--3--5-----------------|-------------



Gb-----------------|-----------------|--------------------------|-------
Db-----------------|-----------------|--------------------------|-------
Ab--3--3--3--3--3--|--3--3-----5--5--|--------------------------|-------
Eb-----------------|-----------------|--0--0--0--0--0--0--0--0--|--0----



Gb-----------------------|--------------------------|-------------------
Db-----------------------|--------------------------|-------------------
Ab--------2--3--5--3-----|--3--3--3--3--3--3--3--3--|--3--3-----5--5----
Eb--3--5-----------------|--------------------------|-------------------


       Verse
Gb--|--------------|-----------------|--------------|--------------|----
Db--|--------------|-----------------|--------------|--------------|----
Ab--|--------------|-----------------|--------------|--------------|----
Eb--|--0--0--0--0--|--0--0--0--0--2--|--3--3--3--3--|--3--3--3--5--|----



Gb--------------|-----------------|--------------|--------------|-------
Db--------------|-----------------|--------------|--------------|-------
Ab--------------|-----------------|--------------|--------------|-------
Eb--0--0--0--0--|--0--0--0--0--2--|--3--3--3--3--|--3--3--3--5--|--0----



Gb-----------|-----------------|--------------|--------------|----------
Db-----------|-----------------|--------------|--------------|----------
Ab-----------|-----------------|--------------|--------------|----------
Eb--0--0--0--|--0--0--0--0--2--|--3--3--3--3--|--3--3--3--5--|--0--0----



Gb--------|-----------------|--------------|--------------|-------------
Db--------|-----------------|--------------|--------------|-------------
Ab--------|-----------------|--------------|--------------|-------------
Eb--0--0--|--0--0--0--0--2--|--3--3--3--3--|--3--3--3--5--|-------------


    Pre-Chorus
Gb--------------|-----------------------|-----------------------|-------
Db--------------|-----------------------|-----------------------|-------
Ab--5--5--5--4--|--0--0--0--0--0--0--0--|-----------------------|-------
Eb--------------|-----------------------|--0--0--0--0--0--3--5--|--0----



Gb-----------------------------|--------------|-------------------------
Db-----------------------------|--------------|-------------------------
Ab-----------------0--2--3--5--|--5--5--5--4--|--0--0--0--0--0--0--0----
Eb--0--0--0--3--5--------------|--------------|-------------------------



Gb--|-----------|-----------------|----------------|--------------|-----
Db--|-----------|-----------------|----------------|--------------|-----
Ab--|--2--------|---/---14--------|---/---2--------|/---14--------|-----
Eb--|-----------|-----------------|----------------|--------------|-----


    Chorus
Gb--------------------------|--------------------------|----------------
Db--------------------------|--------------------------|----------------
Ab--------------------------|-----------2--3--5--3-----|--3--3--3--3----
Eb--0--0--0--0--0--0--0--0--|--0--3--5-----------------|----------------



Gb--------------|-----------------|--------------------------|----------
Db--------------|-----------------|--------------------------|----------
Ab--3--3--3--3--|--3--3-----5--5--|--------------------------|----------
Eb--------------|-----------------|--0--0--0--0--0--0--0--0--|--0--3----



Gb--------------------|--------------------------|-----------------|----
Db--------------------|--------------------------|-----------------|----
Ab-----2--3--5--3-----|--3--3--3--3--3--3--3--3--|--3--3-----5--5--|----
Eb--5-----------------|--------------------------|-----------------|----



Gb--------------|-----------------|--------------|--------------|-------
Db--------------|-----------------|--------------|--------------|-------
Ab--------------|-----------------|--------------|--------------|-------
Eb--0--0--0--0--|--0--0--0--0--2--|--3--3--3--3--|--3--3--3--5--|--0----



Gb-----------|-----------------|--------------|--------------|----------
Db-----------|-----------------|--------------|--------------|----------
Ab-----------|-----------------|--------------|--------------|----------
Eb--0--0--0--|--0--0--0--0--2--|--3--3--3--3--|--3--3--3--5--|--0--0----



Gb--------|-----------------|--------------|--------------|-------------
Db--------|-----------------|--------------|--------------|-------------
Ab--------|-----------------|--------------|--------------|-------------
Eb--0--0--|--0--0--0--0--2--|--3--3--3--3--|--3--3--3--5--|--0--0--0----


                                                          Pre-Chorus
Gb-----|-----------------|--------------|--------------|----------------
Db-----|-----------------|--------------|--------------|----------------
Ab-----|-----------------|--------------|--------------|--5--5--5--4----
Eb--0--|--0--0--0--0--2--|--3--3--3--3--|--3--3--3--5--|----------------



Gb--|-----------------------|-----------------------|-------------------
Db--|-----------------------|-----------------------|-------------------
Ab--|--0--0--0--0--0--0--0--|-----------------------|-------------------
Eb--|-----------------------|--0--0--0--0--0--3--5--|--0--0--0--0--3----



Gb-----------------|--------------|-----------------------|-------------
Db-----------------|--------------|-----------------------|-------------
Ab-----0--2--3--5--|--5--5--5--4--|--0--0--0--0--0--0--0--|--2----------
Eb--5--------------|--------------|-----------------------|-------------


                                                         Chorus
Gb--|-----------------|----------------|--------------|-----------------
Db--|-----------------|----------------|--------------|-----------------
Ab--|---/---14--------|---/---2--------|/---14--------|-----------------
Eb--|-----------------|----------------|--------------|--0--0--0--0-----



Gb--------------|--------------------------|----------------------------
Db--------------|--------------------------|----------------------------
Ab--------------|-----------2--3--5--3-----|--3--3--3--3--3--3--3--3----
Eb--0--0--0--0--|--0--3--5-----------------|----------------------------



Gb--|-----------------|--------------------------|----------------------
Db--|-----------------|--------------------------|----------------------
Ab--|--3--3-----5--5--|--------------------------|-----------2--3--5----
Eb--|-----------------|--0--0--0--0--0--0--0--0--|--0--3--5-------------


                                                             Solo
Gb--------|--------------------------|--------------------|-------------
Db--------|--------------------------|--------------------|-------------
Ab--3-----|--3--3--3--3--3--3--3--3--|--3--3-----3--------|--0--0--0----
Eb--------|--------------------------|--------------5--3--|-------------



Gb-----------------|--------------------------|-------------------------
Db-----------------|--------------------------|-------------------------
Ab--0--0--0--0--0--|--0--0--0--0--0--0--0--0--|--0--0--0--0--0--0--0----
Eb-----------------|--------------------------|-------------------------



Gb-----|--------------------------|--------------------------|----------
Db-----|--------------------------|--------------------------|----------
Ab--0--|--0--0--0--0--0--0--0--0--|--0--0--0--0--0--0--0--0--|--0--0----
Eb-----|--------------------------|--------------------------|----------



Gb--------------------|--------------------------|----------------------
Db--------------------|--------------------------|----------------------
Ab--0--0--0--0--0--0--|--0--0--0--0--0--0--0--0--|--0--0--0--0--0--0----
Eb--------------------|--------------------------|----------------------



Gb--------------|--------------------------|----------------------------
Db--------------|--------------------------|----------------------------
Ab--0-----------|--------------------------|----------------------------
Eb-----5--3--3--|--1--1--1--1--1--1--1--1--|--3--3--3--3--3--3--3--3----



Gb--|--------------------------|----------------------------|-----------
Db--|--------------------------|----------------------------|-----------
Ab--|--------------------------|----------------------------|-----------
Eb--|--5--5--5--5--5--5--5--5--|--5\---------------5--3--3--|--1--1-----



Gb--------------------|--------------------------|----------------------
Db--------------------|--------------------------|----------------------
Ab--------------------|--------------------------|----------------------
Eb--1--1--1--1--1--1--|--3--3--3--3--3--3--3--3--|--5--5--5--5--5--5----



Gb--------|--------------------------|--------------------------|-------
Db--------|--------------------------|--------------------------|-------
Ab--------|--------------------------|--------------------------|-------
Eb--5--5--|--5--5--5--5--5--3-----3--|--1--1--1--1--1--1--1--1--|--0----



Gb-----------------------|--------------------------|-------------------
Db-----------------------|--------------------------|-------------------
Ab-----------------------|--3--3--3--3--3--3--3--3--|--2--2--2--2--2----
Eb--0--0--0--0--0--0--0--|--------------------------|-------------------



Gb--------------|--------------|-----------------|--------------|-------
Db--------------|--------------|-----------------|--------------|-------
Ab--2-----------|--------------|-----------------|--------------|-------
Eb--------------|--0--0--0--0--|--0--0--0--0--2--|--3--3--3--3--|--3----



Gb-----------|--------------|-----------------|--------------|----------
Db-----------|--------------|-----------------|--------------|----------
Ab-----------|--------------|-----------------|--------------|----------
Eb--3--3--5--|--0--0--0--0--|--0--0--0--0--2--|--3--3--3--3--|--3--3----



Gb--------|--------------------|----------------------------------------
Db--------|--------------------|----------------------------------------
Ab--------|--2-----2--2--2-----|--0-----0--0--0-----0-----0--0--0-------
Eb--3--5--|--------------------|----------------------------------------


                                              Chorus
Gb--|-----------------------|--------------|----------------------------
Db--|-----------------------|--------------|----------------------------
Ab--|--2-----2--2--2-----2--|--0-----5-----|----------------------------
Eb--|-----------------------|--------------|--0--0--0--0--0--0--0--0----



Gb--|--------------------------|--------------------------|-------------
Db--|--------------------------|--------------------------|-------------
Ab--|-----------2--3--5--3-----|--3--3--3--3--3--3--3--3--|--3--3-------
Eb--|--0--3--5-----------------|--------------------------|-------------



Gb--------|--------------------------|--------------------------|-------
Db--------|--------------------------|--------------------------|-------
Ab--5--5--|--------------------------|-----------2--3--5--3-----|--3----
Eb--------|--0--0--0--0--0--0--0--0--|--0--3--5-----------------|-------



Gb-----------------------|-----------------------|----------------------
Db-----------------------|-----------------------|----------------------
Ab--3--3--3--3--3--3--3--|--5--------5-----5--5--|----------------------
Eb-----------------------|-----------------------|--0--0--0--0--0--0----



Gb--------|--------------------------|--------------------------|-------
Db--------|--------------------------|--------------------------|-------
Ab--------|-----------2--3--5--3-----|--3--3--3--3--2--2--2--2--|--0----
Eb--0--0--|--0--3--5-----------------|--------------------------|-------



Gb-----------------------|--------------------------|-------------------
Db-----------------------|--------------------------|-------------------
Ab--0--0--0--------------|--------------------------|-----------2--3----
Eb-----------3--3--3--3--|--0--0--0--0--0--0--0--0--|--0--3--5----------



Gb-----------|--------------------------|-------------------------------
Db-----------|--------------------------|-------------------------------
Ab--5--3-----|--3--3--3--3--3--3--3--3--|--3--3--3--3--3--3--3--3--3----
Eb-----------|--------------------------|-------------------------------



Gb--|--------------------------|--------------------------|-------------
Db--|--------------------------|--------------------------|-------------
Ab--|--------------------------|-----------2--3--5--3-----|--3--3--3----
Eb--|--0--0--0--0--0--0--0--0--|--0--3--5-----------------|-------------



Gb-----------------|--------------------------|-------------------------
Db-----------------|--------------------------|-------------------------
Ab--3--3--3--3--3--|--3--3--3--3--3--3--3--3--|-------------------------
Eb-----------------|--------------------------|--0--0--0--0--0--0--0----



Gb-----|--------------------------|--------------------------|----------
Db-----|--------------------------|--------------------------|----------
Ab-----|-----------2--3--5--3-----|--3--3--3--3--2--2--2--2--|--0--0----
Eb--0--|--0--3--5-----------------|--------------------------|----------



Gb--------------------|--------------------------|----------------------
Db--------------------|--------------------------|----------------------
Ab--0--0--------------|--------------------------|-----------2--3--5----
Eb--------3--3--3--3--|--0--0--0--0--0--0--0--0--|--0--3--5-------------



Gb--------|--------------------------|--------------------------|-------
Db--------|--------------------------|--------------------------|-------
Ab--3-----|--3--3--3--3--3--3--3--3--|--3--3--3--3--3--3--3--3--|-------
Eb--------|--------------------------|--------------------------|-------




==                       TABLATURE EXPLANATION                        ==

----------                ----------                ----t---
----5h8--- Hammeron       ----(8)--- Ghost          ----6--- Tap
----------                ---------- Note           --------
----5p8--- Pulloff        ----------                --------

----------                ----------                -----p--
----5/8--- Slide Up       -----x---- Dead           -----7-- Pop
----------                ---------- Note           --s-----
----5\8--- Slide Down     ----------                --5----- Slap

----------                ||------|| Repeat         --------
----5~~~-- Vibrato        ||*----*||                ---5^--- Bend
----------                ||*----*||                --------
----------                ||------||                --------

----------                ----------                --------
-4:------- Time           ----------                --------
-4:------- Signature      ----------                --------
----------                ----------                --------

Rhythm:
  w = whole note            W = dotted whole
  h = half note             H = dotted half
  q = quarter note          Q = dotted quarter
  e = eighth note           E = dotted eighth
  s = sixteenth note        S = dotted sixteenth
  t = 32nd note             T = dotted 32nd
  x = 64th note             X = dotted 64th
  ^ = triplet

==            Created with a demo version of BUCKET O' TAB            ==
==              tablature creation software for Windows               ==





Comments


Popular Ratt tabs & chords
Youre In Trouble Bass Tabs
Round And Round Drum Tabs
Back For More Tabs
Lack Of Communication 2 Tabs
Lay It Down 1 Tabs
Round N Round Tabs
Top Secret Intro Tabs
You Think You're Tough Tabs
You're In Love Tabs
You're In Trouble Tabs


Song lyrics



↑ Back to top | Tablatures and chords are parodies/interpretations of the original songs. You may use it for private study, scholarship, research or language learning purposes only
© 2014 AZChords.com Contact us | Privacy policy | DMCA | Add/correct tabs | Request tabs | Top 50 tabs