>
 >
Lay It Down 2

Lay It Down 2 Guitar Tabs

Ratt - Lay It Down 2 chords, tabs, tablatures, lyrics

Guitar lessons | Add/correct | Request | Top 50 tabs Artists:  A B C D E F G H I J K L M N O P Q R S T U V W X Y Z 0-9

Lay It Down 2 Guitar Tabs – Ratt

CD, Sheet music, Poster

Do you like Lay It Down 2? Share with your friends now
TabsTabs v2Tabs v3Tabs v4Tabs v5
this is my first tab and i learned most of it by ear so bare with me on the mistakes

Drop D tuning

|--------------------------------------------------------------------------------|\
|------------------8p7-----------------------------------------------------------| \
|--7---------------7--------------9p7-----------9/10-----------10------5---5-----|  Lead
|--5---------------7--------------7-------------7/8------------8-------5---5-----|  /
|--5---------------5--------------5------------------------5-5----5/7------------| /
|------------0-0-------------0-0-----------0-0---------------------------0----0--|/

|--------------------------------------------------------------------------------|\
|--------------------------------------------------------------------------------| \
|--------------------------------------------------------------------------------|  Rythem
|--------------------------------------------------------------------------------|  /
|--------------------------------------------------------------------------------| /
|--------------------------------------------------------------------------------|/


_________________________________________________________________________________________


|--------------------------------------------------------------------------------|\
|------------------8p7-----------------------------------------------------------| \
|--7---------------7--------------9p7-----------9/10-----------------------------|  Lead
|--5---------------7--------------7-------------7/8------------------------------|  /
|--5---------------5--------------5--------------------0-0-0h2-2-2-2/3-3-3-3/5-0-| /
|------------0-0-------------0-0-----------0-0---------0-0-0h2-2-2-2/3-3-3-3/5-0-|/

|--------------------------------------------------------------------------------|\
|--------------------------------------------------------------------------------| \
|--------------------------------------------------------------------------------|  Rythem
|--------------------------------------------------------------------------------|  /  
|------------------------------------------------------0-0-0h2-2-2-2/3-3-3-3/5-0-| /
|------------------------------------------------------0-0-0h2-2-2-2/3-3-3-3/5-0-|/

_________________________________________________________________________________________


|--------------------------------------------------------------------------------|\
|------------------8p7-----------------------------------------------------------| \
|--7---------------7--------------9p7-----------9/10-----------10------5---5-----|  Lead
|--5---------------7--------------7-------------7/8------------8-------5---5-----|  /
|--5---------------5--------------5------------------------5-5----5/7------------| /
|------------0-0-------------0-0-----------0-0---------------------------0----0--|/

|--------------------------------------------------------------------------------|\
|------------------8p7-----------------------------------------------------------| \
|--7---------------7--------------9p7-----------9/10-----------10------5---5-----|  Rythem
|--5---------------7--------------7-------------7/8------------8-------5---5-----|  /
|--5---------------5--------------5------------------------5-5----5/7------------| /
|------------0-0-------------0-0-----------0-0---------------------------0----0--|/


_______________________________________________________________________________________


|--------------------------------------------------------------------------------|\
|------------------8p7----------------------------------------6p5----------------| \
|--7---------------7--------------9p7-----------9--5------5-5------5-------------|  Lead
|--5---------------7--------------7-------------7--5---5-------------------------|  /
|--5---------------5--------------5-------------5--3-----------------------------| /
|------------0-0-------------0-0-----------0-0-----------------------------------|/

|--------------------------------------------------------------------------------|\
|------------------8p7-----------------------------------------------------------| \
|--7---------------7--------------9p7-----------9--5-----------------------------|  Rythem
|--5---------------7--------------7-------------7--5-----------------------------|  /
|--5---------------5--------------5-------------5--3-----------------------------| /
|------------0-0-------------0-0-----------0-0------------------------/////------|/
                                                              pick slide down

________________________________________________________________________________________


|--------------------------------------------------------------------------------|\
|--3-----------------------------------------------------------------------------| \
|--2-----------------------------------------------------------------------------|  Lead
|--0-------------------------------------\------------------/--------------------|  /
|--0-------------------------------------\------------------/--------------------| /
|--0-------------------------------------\------------------/--------------------|/
                                         *pick slide down then up
|--------------------------------------------------------------------------------|\
|--------------------------------------------------------------------------------| \
|--7-----------------------------------------------------------5--7-----\--------|  Rythem
|--7-----------------------------------------------------------5--7-----\--------|  /
|--5-----------------------------------------------------------3--5-----\--------| / 
|--------------------------------------------------------------------------------|/
                                                                   *slide down after like a second

__________________________________________________________________________________________



|---------------------------------------------------------------------------------|\
|------------------------------7--5------------------------------5--7-------------| \
|------------------------------7--5------------------------------5--7-------------|  Lead
|---------------------------------------------------------------------------------|  /
|---------------------------------------------------------------------------------| /
|---------------------------------------------------------------------------------|/
pm notes

|--------------------------------------------------------------------------------|\
|--------------------------------------------------------------------------------| \
|--------------------------------------------------------------------------------|  Rythem
|--------------------------------------------------------------------------------|  /
|--------------------------------------------------------------------------------| /
|--0-----0-0-0------0-0-0------0-0-0-----0-0-0-----0-0-0-----0-0-0----0-0-0------|/
pm open D notes (0)

__________________________________________________________________________________________



|--------------------------------------------------------------------------------|\
|-----------------------------5h6---------------------5--------------------------| \
|-----------------------------5-----------------------5--------------------------|  Lead
|-----------------------------------------------------5--------------------7-----|  /
|--------------------------------------------------------------------------5-----| /
|--------------------------------------------------------------------------------|/
pm notes
|--------------------------------------------------------------------------------|\
|--------------------------------------------------------------------------------| \
|--------------------------------------------------------------------------------|  Rythem
|--------------------------------------------------------------------------------|  /
|--------------------------------------------------------------------------------| /
|--0-0-0------0-0-0-----0-0-0-----0-0-0-----0-0-0------0-0-0-----0-0-0-----------|/ 
pm notes

__________________________________________________________________________________________



|---------------------------------------------------------------------------------|\
|------------------------------7--5------------------------------5--7-------------| \
|------------------------------7--5------------------------------5--7-------------|  Lead
|---------------------------------------------------------------------------------|  /
|---------------------------------------------------------------------------------| /
|---------------------------------------------------------------------------------|/
pm notes
|--------------------------------------------------------------------------------|\
|--------------------------------------------------------------------------------| \
|--------------------------------------------------------------------------------|  Rythem
|--------------------------------------------------------------------------------|  /
|--------------------------------------------------------------------------------| /
|--0-0-0------0-0-0-----0-0-0-----0-0-0-----0-0-0------0-0-0-----0-0-0-----0-0-0-|/ 
pm notes

__________________________________________________________________________________________



|--------------------------------------------------------------------------------|\
|-----------------------------5h6---------------------5--------------------------| \
|-----------------------------5-----------------------5--------------------------|  Lead
|-----------------------------------------------------5-----------------7~-------|  /
|-----------------------------------------------------------------------5--------| /
|--------------------------------------------------------------------------------|/
pm notes
|--------------------------------------------------------------------------------|\
|--------------------------------------------------------------------------------| \
|--------------------------------------------------------------------------------|  Rythem
|--------------------------------------------------------------------------------|  /
|--------------------------------------------------------------------------2-*-3-| /
|--0-0-0------0-0-0-----0-0-0-----0-0-0-----0-0-0------0-0-0-----0-0-0-----2-*-3-|/ 
pm notes                                                                   not pm, *=ghost note


___________________________________________________________________________________________



|--------------------------------------------------------------------------------|\
|-----------------------------------------------8---------6---6---5--------5-5-5-| \
|-----------------------------------------------7---------5---5---5--------5-5-5-|  Lead
|--------------------------------------------------------------------------------|  /
|--------------------------------------------------------------------------------| /
|--------------------------------------------------------------------------------|/    

|--------------------------------------------------------------------------------|\ 
|--------------------------------------------------------------------------------| \
|--------------------------------------------------------------------------------|  Rythem
|--------------------------------------------------------------------------------|  /
|--(3)---------------------------------------------------------------------------| /
|--(3)----3-3-3-----3-3-3----3-3-3-----3-3-3-----3-3-3------3-3-3------3-3-3-----|/
     Pm f notes (3 on bottom string)

____________________________________________________________________________________________


             
|--------------------------------------------------------------------------------|\
|-----------------------8-8------------------------------------------------------| \
|--7--7--7--7--7--7--7--7-7--7---------------------------------------------------|  Lead
|--7--7--7--7--7--7--7--7-7--7---------------------------------------------------|  /
|--5--5--5--5--5--5--5--5-5--5---------------------------------------------------| /
|--------------------------------------------------------------------------------|/ 

|-----------------------------------------------|\ 
|--------------------------------8--------------| \
|--------------------------------7--7-----------|  Rythem
|--------------------------------7--7-----------|  /
|--------------------------------5--5-----2-*-3-| /
|--3-3-3-----3-3-3----3-3-3---------------2-*-3-|/ 


_____________________________________________________________________________________________



|--------------------------------------------------------------------------------|\
|-----------------------------------------------8---------6---6---5--------5-5-5-| \
|-----------------------------------------------7---------5---5---5--------5-5-5-|  Lead
|--------------------------------------------------------------------------------|  /
|--------------------------------------------------------------------------------| /
|--------------------------------------------------------------------------------|/    

|--------------------------------------------------------------------------------|\ 
|--------------------------------------------------------------------------------| \
|--------------------------------------------------------------------------------|  Rythem
|--------------------------------------------------------------------------------|  /
|--(3)---------------------------------------------------------------------------| /
|--(3)----3-3-3-----3-3-3----3-3-3-----3-3-3-----3-3-3------3-3-3------3-3-3-----|/ 


__________________________________________________________________________________________



|--------------------------------------------------------------------------------|\
|------------------8p7-----------------------------------------------------------| \
|--7---------------7--------------9p7-----------9/10-----------10------5---5-----|  Lead
|--5---------------7--------------7-------------7/8------------8-------5---5-----|  /
|--5---------------5--------------5------------------------5-5----5/7------------| /
|------------0-0-------------0-0-----------0-0---------------------------0----0--|/

|--------------------------------------------------------------------------------|\
|--------------------------------------------------------------------------------| \
|--------------------------------------------------------------------------------|  Rythem
|--------------------------------------------------------------10-----5------7-/-|  /
|--------------------------------------------------------------8------3------5-/-| /  
|--0-0-0-----0-0-0-----0-0-0-----0-0-0-----0-0-0------0-0-0----------------------|/ 



___________________________________________________________________________________________



|--------------------------------------------------------------------------------|\
|------------------8p7-----------------------------------------------------------| \
|--7---------------7--------------9p7-----------9/10-----------10------5---5-----|  Lead
|--5---------------7--------------7-------------7/8------------8-------5---5-----|  /
|--5---------------5--------------5------------------------5-5----5/7------------| /
|------------0-0-------------0-0-----------0-0---------------------------0----0--|/

|--------------------------------------------------------------------------------|\
|--------------------------------------------------------------------------------| \
|--------------------------------------------------------------------------------|  Rythem
|--------------------------------------------------------------10-----5------7-/-|  /
|--------------------------------------------------------------8------3------5-/-| /  
|--0-0-0-----0-0-0-----0-0-0-----0-0-0-----0-0-0------0-0-0----------------------|/ 


____________________________________________________________________________________________



|--------------------------------------------------------------------------------|\
|-----------------------------7--5------------------------------5--7-------------| \
|--7--/-----------------------7--5------------------------------5--7-------------|  Lead
|--7--/--------------------------------------------------------------------------|  /
|--5--/--------------------------------------------------------------------------| /
|--------------------------------------------------------------------------------|/
 pick slide down                   pm notes

|--------------------------------------------------------------------------------|\
|--------------------------------------------------------------------------------| \
|--------------------------------------------------------------------------------|  Rythem
|--------------------------------------------------------------------------------|  /
|--------------------------------------------------------------------------------| /
|--0-0-0---0-0-0------0-0-0------0-0-0-----0-0-0-----0-0-0-----0-0-0----0-0-0----|/
pm notes


____________________________________________________________________________________________



|--------------------------------------------------------------------------------|\
|-----------------------------5h6---------------------5h6p5h6p5h6p5h6p5----------| \
|-----------------------------5-----------------------5--------------------------|  Lead
|-----------------------------------------------------5--------------------7-----|  /
|--------------------------------------------------------------------------5-----| /
|--------------------------------------------------------------------------------|/
pm notes
|--------------------------------------------------------------------------------|\
|--------------------------------------------------------------------------------| \
|--------------------------------------------------------------------------------|  Rythem
|--------------------------------------------------------------------------------|  /
|--------------------------------------------------------------------------------| /
|--0-0-0------0-0-0-----0-0-0-----0-0-0-----0-0-0------0-0-0-----0-0-0-----------|/ 
pm notes


___________________________________________________________________________________________



|--------------------------------------------------------------------------------|\
|------------------------------7--5------------------------------5--7------------| \
|------------------------------7--5------------------------------5--7------------|  Lead
|--------------------------------------------------------------------------------|  /
|--------------------------------------------------------------------------------| /
|--------------------------------------------------------------------------------|/
pm notes
|--------------------------------------------------------------------------------|\
|--------------------------------------------------------------------------------| \
|--------------------------------------------------------------------------------|  Rythem
|--------------------------------------------------------------------------------|  /
|--------------------------------------------------------------------------------| /
|--0-0-0------0-0-0-----0-0-0-----0-0-0-----0-0-0------0-0-0-----0-0-0-----0-0-0-|/ 
pm notes

__________________________________________________________________________________________



|--------------------------------------------------------------------------------|\
|-----------------------------5h6---------------------5h6p5h6p5h6p5--------------| \
|-----------------------------5-----------------------5--------------------------|  Lead
|-----------------------------------------------------5--------------------------|  /
|--------------------------------------------------------------------------------| /
|--------------------------------------------------------------------------------|/
pm notes
|--------------------------------------------------------------------------------|\
|--------------------------------------------------------------------------------| \
|--------------------------------------------------------------------------------|  Rythem
|--------------------------------------------------------------------------------|  /
|--------------------------------------------------------------------------2-*-3-| /
|--0-0-0------0-0-0-----0-0-0-----0-0-0-----0-0-0------0-0-0-----0-0-0-----2-*-3-|/ 
pm notes                                                                   not pm, *=ghost note


_____________________________________________________________________________________________



|--------------------------------------------------------------------------------|\
|-----------------------------------------------8---------6---6---5--------5-5-5-| \
|-----------------------------------------------7---------5---5---5--------5-5-5-|  Lead
|--------------------------------------------------------------------------------|  /
|--------------------------------------------------------------------------------| /
|--------------------------------------------------------------------------------|/    

|--------------------------------------------------------------------------------|\ 
|--------------------------------------------------------------------------------| \
|--------------------------------------------------------------------------------|  Rythem
|--------------------------------------------------------------------------------|  /
|--(3)---------------------------------------------------------------------------| /
|--(3)----3-3-3-----3-3-3----3-3-3-----3-3-3-----3-3-3------3-3-3------3-3-3-----|/
     

_____________________________________________________________________________________________


             
|--------------------------------------------------------------------------------|\
|-----------------------8-8------------------------------------------------------| \
|--7--7--7--7--7--7--7--7-7--7---------------------------------------------------|  Lead
|--7--7--7--7--7--7--7--7-7--7---------------------------------------------------|  /
|--5--5--5--5--5--5--5--5-5--5---------------------------------------------------| /
|--------------------------------------------------------------------------------|/ 

|--------------------------------------------------|\ 
|--------------------------------8-----------------| \
|--------------------------------7--7--------------|  Rythem
|--------------------------------7--7--------------|  /
|--------------------------------5--5--------2-*-3-| /
|--3-3-3-----3-3-3----3-3-3------------------2-*-3-|/ 


__________________________________________________________________________________________



|--------------------------------------------------------------------------------|\
|-----------------------------------------------8---------6---6---5--------5-5-5-| \
|-----------------------------------------------7---------5---5---5--------5-5-5-|  Lead
|--------------------------------------------------------------------------------|  /
|--------------------------------------------------------------------------------| /
|--------------------------------------------------------------------------------|/    

|--------------------------------------------------------------------------------|\ 
|--------------------------------------------------------------------------------| \
|--------------------------------------------------------------------------------|  Rythem
|--------------------------------------------------------------------------------|  /
|--(3)---------------------------------------------------------------------------| /
|--(3)----3-3-3-----3-3-3----3-3-3-----3-3-3-----3-3-3------3-3-3------3-3-3-----|/ 


___________________________________________________________________________________________



|--------------------------------------------------------------------------------|\
|------------------8p7-----------------------------------------------------------| \
|--7---------------7--------------9p7-----------9/10-----------10------5---5-----|  Lead
|--5---------------7--------------7-------------7/8------------8-------5---5-----|  /
|--5---------------5--------------5------------------------5-5----5/7------------| /
|------------0-0-------------0-0-----------0-0---------------------------0----0--|/

|--------------------------------------------------------------------------------|\
|--------------------------------------------------------------------------------| \
|--------------------------------------------------------------------------------|  Rythem
|--------------------------------------------------------------10-----5------7-/-|  /
|--------------------------------------------------------------8------3------5-/-| /  
|---0------0-0-0-----0-0-0-----0-0-0-----0-0-0------0-0-0------------------------|/ 


_______________________________________________________________________________________________



|--------------------------------------------------------------------------------|\
|------------------8p7-----------------------------------------------------------| \
|--7---------------7--------------9p7-----------9/10-----------10------5---5-----|  Lead
|--5---------------7--------------7-------------7/8------------8-------5---5-----|  /
|--5---------------5--------------5------------------------5-5----5/7------------| /
|------------0-0-------------0-0-----------0-0---------------------------0----0--|/

|--------------------------------------------------------------------------------|\
|--------------------------------------------------------------------------------| \
|--------------------------------------------------------------------------------|  Rythem
|--------------------------------------------------------------10-----5------7-/-|  /
|--------------------------------------------------------------8------3------5-/-| /  
|--0-0-0-----0-0-0-----0-0-0-----0-0-0-----0-0-0------0-0-0----------------------|/ 


______________________________________________________________________________________________



|--------------------------------------------------------------------------------|\
|------------------8p7-----------------------------------------------------------| \
|--7---------------7--------------9p7-----------9/10-----------10------5---5-----|  Lead
|--5---------------7--------------7-------------7/8------------8-------5---5-----|  /
|--5---------------5--------------5------------------------5-5----5/7------------| /
|------------0-0-------------0-0-----------0-0---------------------------0----0--|/

|--------------------------------------------------------------------------------|\
|--------------------------------------------------------------------------------| \
|--------------------------------------------------------------------------------|  Rythem
|--------------------------------------------------------------10-----5------7-/-|  /
|--------------------------------------------------------------8------3------5-/-| /  
|--0-0-0-----0-0-0-----0-0-0-----0-0-0-----0-0-0------0-0-0----------------------|/ 


________________________________________________________________________________________________



|--------------------------------------------------------------------------------|\
|------------------8p7-----------------------------------------------------------| \
|--7---------------7--------------9p7-----------9/10-----------10------5---5-----|  Lead
|--5---------------7--------------7-------------7/8------------8-------5---5-----|  /
|--5---------------5--------------5------------------------5-5----5/7------------| /
|------------0-0-------------0-0-----------0-0---------------------------0----0--|/

|--------------------------------------------------------------------------------|\
|--------------------------------------------------------------------------------| \
|--------------------------------------------------------------------------------|  Rythem
|--------------------------------------------------------------10-----5------7-/-|  /
|--------------------------------------------------------------8------3------5-/-| /  
|--0-0-0-----0-0-0-----0-0-0-----0-0-0-----0-0-0------0-0-0----------------------|/ 


_________________________________________________________________________________________



|--------------------------------------------------------------------------------|\
|--6~----------------------------------------------------------------------------| \
|--3~----------------------------------------------------------------------------|  Lead
|--3~----------------------------------------------------------------------------|  /
|--------------------------------------------------------------------------------| /
|--------------------------------------------------------------------------------|/
    
|--------------------------------------------------------------------------------|\
|--------------------------------------------------------------------------------| \
|--------------------------------------------------------------------------------|  Rythem
|--------------------------------------------------------------------------------|  /
|--------------------------------------------------------------------------------| /
|--------------------------------------------------------------------------------|/

_________________________________________________________________________________________


|--------------------------------------------------------------------------------|\     ___
|--------------------------------------------------------------------------------| \       |
|--------------------------------------------------------------------------------|  Lead   |
|--------------------------------------------------------------------------------|  /      |
|--------------------------------------------------------------------------------| /       |
|--------------------------------------------------------------------------------|/        |
                                                                                           }x2
|--------------------------------------------------------------------------------|\        |
|--5h6p5------------------------5h6p5-----------------5-*-3----------------------| \       |
|--5----------------------------5---------------------5-*-3----------------------|  Rythem |  
|--------------------------------------------------------------------------------|  /      |
|--------------------------------------------------------------------------------| /       |
|--------------------------------------------------------------------------------|/     ___|
  switch to a clean sound 

__________________________________________________________________________________________



|--------------------------------------------------------------------------------|\
|--------------------------------------------------------------------------------| \
|--------------------------------------------------------------------------------|  \
|--------------------------------------------------------------------------------|  Lead
|--------------------------------------------------------------------------------| / 
|--------------------------------------------------------------------------------|/
    
|--------------------------------------------------------------------------------|\
|--------------------------------------------------------------------------------| \
|--------------------------------------------------------------------------------|  Rythem
|--5h6p5-------------------------------------------------------------------------|  /
|--5-----------------------------------------------------------------------------| /
|--------------------------------------------------------------------------------|/
let notes ring

__________________________________________________________________________________________



during the solo the rythem stums the open d like |--0-----0-0-0-----0-0-0-----0-0-0-|
(i didnt tab the solo, sorry)


|--------------------------------------------------------------------------------|
|--------------------------------------------------------------------------------|
|-------------17p15----14----12/14~--------------------------------/-------------|
|------------------------------------------------------------------/-------------|
|--------------------------------------------------------------------------------|
|--------------------------------------------------------------------------------|
                                           pick slide
|--------------------------------------------------------------------------------|
|--------------------------------------------------------------------------------|
|--------------------------------------------------------------------------------|
|--------------------------------------------------------------------------------|
|--------------------------------------------------------------------------------|
|--0-0-0----0-0-0-----0-0-0-----0-0-0-----0-0-0-----0-0-0-----0-0-0-----0-0-0----|


______________________________________________________________________________________


|--------------------------------------------------------------------------------|\
|------------------8p7-----------------------------------------------------------| \
|--7---------------7--------------9p7-----------9/10-----------10------5---5-----|  Lead
|--5---------------7--------------7-------------7/8------------8-------5---5-----|  /
|--5---------------5--------------5------------------------5-5----5/7------------| /
|------------0-0-------------0-0-----------0-0---------------------------0----0--|/

|--------------------------------------------------------------------------------|\
|--------------------------------------------------------------------------------| \
|--------------------------------------------------------------------------------|  Rythem
|--------------------------------------------------------------10-----5------7-/-|  /
|--------------------------------------------------------------8------3------5-/-| /  
|--0-0-0-----0-0-0-----0-0-0-----0-0-0-----0-0-0------0-0-0----------------------|/ 


__________________________________________________________________________________________


|--------------------------------------------------------------------------------|\
|------------------8p7-----------------------------------------------------------| \
|--7---------------7--------------9p7-----------9/10-----------10------5---5-----|  Lead
|--5---------------7--------------7-------------7/8------------8-------5---5-----|  /
|--5---------------5--------------5------------------------5-5----5/7------------| /
|------------0-0-------------0-0-----------0-0---------------------------0----0--|/

|--------------------------------------------------------------------------------|\
|--------------------------------------------------------------------------------| \
|--------------------------------------------------------------------------------|  Rythem
|--------------------------------------------------------------10-----5------7-/-|  /
|--------------------------------------------------------------8------3------5-/-| /  
|--0-0-0-----0-0-0-----0-0-0-----0-0-0-----0-0-0------0-0-0----------------------|/ 


________________________________________________________________________________________


|--------------------------------------------------------------------------------|\
|------------------8p7-----------------------------------------------------------| \
|--7---------------7--------------9p7-----------9/10-----------10------5---5-----|  Lead
|--5---------------7--------------7-------------7/8------------8-------5---5-----|  /
|--5---------------5--------------5------------------------5-5----5/7------------| /
|------------0-0-------------0-0-----------0-0---------------------------0----0--|/

|--------------------------------------------------------------------------------|\
|--------------------------------------------------------------------------------| \
|--------------------------------------------------------------------------------|  Rythem
|--------------------------------------------------------------10-----5------7-/-|  /
|--------------------------------------------------------------8------3------5-/-| /  
|--0-0-0-----0-0-0-----0-0-0-----0-0-0-----0-0-0------0-0-0----------------------|/ 


________________________________________________________________________________________


|--------------------------------------------------------------------------------|\
|------------------8p7-----------------------------------------------------------| \
|--7---------------7--------------9p7-----------9/10-----------10------5---5-----|  Lead
|--5---------------7--------------7-------------7/8------------8-------5---5-----|  /
|--5---------------5--------------5------------------------5-5----5/7------------| /
|------------0-0-------------0-0-----------0-0---------------------------0----0--|/

|--------------------------------------------------------------------------------|\
|--------------------------------------------------------------------------------| \
|--------------------------------------------------------------------------------|  Rythem
|--------------------------------------------------------------10-----5------7---|  /
|--------------------------------------------------------------8------3------5---| /  
|--0-0-0-----0-0-0-----0-0-0-----0-0-0-----0-0-0------0-0-0----------------------|/ 


_________________________________________________________________________________________

|------------|
|------------|
|------------|
|--7-\-------|
|--5-\-------|
|------------|

|------------|
|------------|
|------------|
|---(7)-\----|
|---(5)-\----|
|------------|


THE  END. TEHE!





Comments


Popular Ratt tabs & chords
Back For More Bass Tabs
Lack Of Communication 1 Bass Tabs
Round And Round 1 Bass Tabs
Tell The World Bass Tabs
Wanted Man 2 Bass Tabs
Wanted Man 3 Bass Tabs
Body Talk Tabs
Lay It Down Tabs
Morning After Intro Tabs
You're In Love Tabs


Song lyrics



↑ Back to top | Tablatures and chords are parodies/interpretations of the original songs. You may use it for private study, scholarship, research or language learning purposes only
© 2014 AZChords.com Contact us | Privacy policy | DMCA | Add/correct tabs | Request tabs | Top 50 tabs