» » »

Ratt, Lay It Down Tabs (ver.3)

Artists:  A B C D E F G H I J K L M N O P Q R S T U V W X Y Z # 

Lay It Down Tabs (ver.3)

Ratt Tabs
Rating:
0/5 (0 votes)
Lay It Down lessons Tabs too difficult? Try these video lessons and learn fast
                -------------------------------------------------------------------------------
ratt lay it down
--------------------------------------------------------------------------

Tuning:standard

e|---------------------------------------------------------------------------|


e|-----------------------------------------------------------------------|
B|------------8---------5---7--------------------------------------------|
G|---7---7----7---7-----7---7-----10---10---10----10----12---12------4x--|
D|---7---7----7---7-----7----7-----8----8-----8-----8----10---10---------|
A----5---5--------5------------------------------------------------------|
E|-----------------------------------------------------------------------|

e|---------------------------------------------------------------------|
B|------------8--------5----7-------------6---5----3---5---------------|
G|---7---7----7---7----7----7---7----5----5---5----5---5---5---5----7--|
D|---7---7----7---7----7----7---7----5----5---5----5---5---5---5----7--|
A|---5---5--------5-------------5----3---------------------3---3----5--|
E|---------------------------------------------------------------------|
                 I know you dont really know me
e|---------------------------------------------------------------------------------|
B|---------------------------------------------------------------------------------|
G|---5---5---7---------------------------5-----------------------------------------|
D|---5---5---7---------------------------5-----------------------------------------|
A|---3---3---5---------------------------3-----------------------------------------|
E|---------------------------------------------------------------------------------|
                 I know you dont really care to see me
e|-------------------------------------1--------------------------------------------|
B|-------------------------------------1--------------------------------------------|
G|----5---5---7------------------------2---------5----------------------------------|
D|----5---5---7------------------------3---------5----------------------------------|
A|----3---3---5------------------------3---------3----------------------------------|
E|-------------------------------------1--------------------------------------------|
                  Im into total affection
e|---------------------------------------------------------------------------------|
B|---------------------------------------------------------------------------------|
G|----5---5----7--------------------5----------------------------------------------|
D|----5---5----7--------------------5----------------------------------------------|
A|----3---3----5--------------------3----------------------------------------------|
E|---------------------------------------------------------------------------------|
                  not being scared if you never please me
e|-------------------------------------1-------------------------------------------|
B|-------------------------------------1-------------------------------------------|
G|----5---5----7-----------------------2--------5----------------------------------|
D|----5---5----7-----------------------3--------5----------------------------------|
A|----3---3----5-----------------------3--------3----------------------------------|
E|-------------------------------------1-------------------------------------------|
please be nice its only my second attempt to get music on your site  thanks george

************************************

| /   slide up
| \   slide down
| h   hammer-on
| p   pull-off
| ~   vibrato
| +   harmonic
| x   Mute note
| b   Bend
| pb  Pre-bend
| br  Bend release
| pbr Pre-bend release
| brb Bend release bend

************************************
            
Submit corrections

comments powered by Disqus
↑ Back to top | Ratt Tabs for Lay It Down. Lyrics for acoustic guitar and electric guitar. Tablatures and chords are parodies/interpretations of the original songs. You may use it for private study, scholarship, research or language learning purposes only