>
 >
Body Talk

Body Talk Guitar Tabs

Ratt - Body Talk chords, tabs, tablatures, lyrics

Guitar lessons | Add/correct | Request | Top 50 tabs Artists:  A B C D E F G H I J K L M N O P Q R S T U V W X Y Z 0-9

Body Talk Guitar Tabs – Ratt

CD, Sheet music, Poster

Do you like Body Talk? Share with your friends now
Tabs
Ratt - Body Talk
(album:Dancing Undercover)


Tuning:

E
H
G
D
A
E



INTRO
Q=174
4/4
Gtr I
||-----0-------0-----|------0------0----|----------------|-----------------|
||-----------0-------|----------0-------|----------------|-----------------|
||---------------6---|---------------6--|---------6-----6|(6)------6-------|
||-------------------|------------------|-----6------6---|-----6------6----|
||-4---------------0-|-(0)--------------|----------------|---------------4-|
||-------------------|-----------------6|(6)------------7|(7)--------------|
|
|  Gtr II
||-------------------|------------------|----------------|-----------------|
||-------------------|------------------|----------------|-----------------|
||-------------------|------------------|-----1--(1)-----|-----------------|
||-------------------|------------------|----------------|-----------------|
||-4-4---(4)-----0---|-(0)--0--(0)-----1|(1)-----------2p|=1h2-2--(2)----4-|
||-------------------|------------------|----------------|-----------------|


|------0------0-----|------0------0-----|-----------------|---------------||
|----------0--------|----------0--------|-----------------|---------------||
|---------------6---|---------------6---|-----6----6----6-|-(6)------6----||
|-------------------|-------------------|-------6----6----|------6-------4||
|-(4)-------------0-|-(0)---------------|-----------------|---------------||
|-------------------|-----------------6-|-(6)-----------7-|-(7)-----------||
|
|Gtr III
|-------------------|-------------------|-----------------|---------------||
|-------------------|-------------------|----------2------|---------------||
|-------------------|-------------------|-------1----1----|---------------||
|-------------------|-------------------|-----------------|--------------6||
|-(4)--4--(4)-----0-|-(0)--0--(0)-----1-|-(1)-----------2p|==1h2-2--(2)--4||
|-------------------|-------------------|-----------------|---------------||


|------0----0-----|------0----0-----|-----------------|-------------------|
|---------0-------|---------0-------|-----------------|-------------------|
|-------------6---|-------------6---|-----6----6----6-|-(6)-------6-------|
|-(4)-------------|-----------------|-------6----6----|------6-------6----|
|---------------0-|-(0)-------------|-----------------|-----------------4-|
|-----------------|---------------6-|-(6)-----------7-|-(7)---------------|
|
|-----------------|-----------------|-----------------|-------------------|
|-----------------|-----------------|-----------------|-------------------|
|-----------------|---------------6-|-(6)-------------|-------------------|
|-(6)-------------|---------------6-|-(6)-------------|-----------------6-|
|-(4)-----------7-|-(7)-------------|---------------9-|-(9)----6-(6)----4-|
|---------------5-|-(5)-----------6-|-(6)-----------7-|-(7)----4-(4)------|


|------0----0-----|------0----0-----|
|---------0-------|---------0-------|
|-------------6---|-------------6---|
|-----------------|-----------------|
|-(4)-----------0-|-(0)-------------|
|-----------------|---------------6-|
|
|-----------------|-----------------|
|-----------------|-----------------|
|-----------------|---------------6-|
|-(6)-------------|---------------6-|
|-(4)-----------7-|-(7)-------------|
|---------------5-|-(5)-----------6-|


|-----------------|------------|------------|--------||
|-----------------|------------|------------|--------||
|-----6----6------|------------|------------|--------||
|-------6----6----|------------|------------|--------||
|-----------------|------------|------------|--------||
|-(6)-----------7-|-(7)--------|-(7)--------|-(7)----||
|
|-----------------|------------|------------|--------||
|-----------------|------------|------------|--------||
|-(6)-------------|------------|------------|--------||
|-(6)-----------9-|-(9)--------|-(9)--------|-(9)----||
|---------------9-|-(9)--------|-(9)--------|-(9)----||
|-(6)-----------7-|-(7)--------|-(7)--------|-(7)----||


 Pre-Verse
  Q=176
  Gtrs III, IV
     PM------------------------|
|----------------|-----------------|-------------|
|----------------|-----------------|-------------|
|-2--------------|---------------2-|-(2)-------1-|
|-2--------------|---------------2-|-(2)-------2-|
|----------------|-----------------|-------------|
|----2-2-2-2-2-2-|-2-2-2-2-2-2-x---|-------------|


                     PM------------------------|
|-------------|------------------|-----------------|--------------|
|-------------|------------------|-----------------|--------------|
|-(1)-------2-|-(2)--------------|---------------2-|-(2)--------4-|
|-(2)-------2-|-(2)--------------|---------------2-|-(2)--------2-|
|-------------|------------------|-----------------|----------x---|
|-------------|------2-2-2-2-2-2-|-2-2-2-2-2-2-2---|--------------|


                        PM------------------------|
|----------------|------------------|-----------------|--------------|
|----------------|------------------|-----------------|--------------|
|-(4)------(4)-2-|-(2)--------------|---------------2-|-(2)--------1-|
|-(2)------(2)-2-|-(2)--------------|---------------2-|-(2)--------2-|
|----------------|------------------|-----------------|--------------|
|----------------|------2-2-2-2-2-2-|-2-2-2-2-2-2-2---|----------x---|


|-------------|------------|----------------|------------|-----------------|
|-----------3-|-(3)--------|-(3)------------|------------|-----------------|
|-(1)-------2-|-(2)--------|-(2)------------|------------|-2-----1-(1)---2-|
|-(2)-------0-|-(0)--------|-(0)----0-0---2-|-(2)--------|-2-----2-(2)---2-|
|-------------|------------|------------4-0-|-(0)--------|-0-0-0-----------|
|-------------|------------|----------------|------------|-----------------|


   Verse
    $
    Gtrs III, IV
         PM------------------------|
||-------------------|-----------------|--------------|
||o------------------|-----------------|--------------|
||--(2)--------------|---------------2-|-(2)--------1-|
||--(2)--------------|---------------2-|-(2)--------2-|
||o------------------|-----------------|--------------|
||-------2-2-2-2-2-2-|-2-2-2-2-2-2-x---|----------x---|


                     PM------------------------|
|-------------|------------------|-----------------|--------------|
|-------------|------------------|-----------------|--------------|
|-(1)-------2-|-(2)--------------|---------------2-|-(2)--------4-|
|-(2)-------2-|-(2)--------------|---------------2-|-(2)--------2-|
|-------------|------------------|-----------------|----------x---|
|-------------|------2-2-2-2-2-2-|-2-2-2-2-2-2-2---|--------------|


                     PM------------------------|
|-------------|------------------|-----------------|-------------|
|-------------|------------------|-----------------|-------------|
|-(4)-------2-|-(2)--------------|---------------2-|-(2)-------1-|
|-(2)-------2-|-(2)--------------|---------------2-|-(2)-------2-|
|-------------|------------------|-----------------|-------------|
|-------------|------2-2-2-2-2-2-|-2-2-2-2-2-2-2---|-------------|


                       Gtrs III, IV
|----------------|------------|----------------|
|--------------3-|-(3)--------|-(3)------------|
|-(1)------(1)-2-|-(2)--------|-(2)----2-2-----|
|-(2)------(2)-0-|-(0)--------|-(0)----0-0---2-|
|----------------|------------|------------4-0-|
|----------------|------------|----------------|


           PM|
|--------------|-----------------|
|--------------|-----------------|
|--------------|-2---1-(1)----5--|
|-(2)----------|-2---2-(2)----5--|
|-(0)------0-0-|------------x----|
|--------------|-----------------|


 Chorus
  Gtrs III, IV
       PM----------------|   PM|            PM----------------|
|------------------|-----------------|------------------|-----------------|
|------------------|-----------------|------------------|-----------------|
|-(5)--------------|-------5-----5-4-|-(4)--------------|-------5---4---3-|
|-(5)--------------|-------5-----5-5-|-(5)--------------|-------5---4---3-|
|------0-0-0-0-0-0-|-0-0-0---0-0-----|------0-0-0-0-0-0-|-0-0-0---x---x---|
|------------------|-----------------|------------------|-----------------|


       PM----------------|   PM--|          PM--------|           PM--|
|------------------|-----------------|------------------|-----------------|
|------------------|-----------------|------------------|-----------------|
|-(3)--------------|-------3-------2-|-(2)--------------|---------------5-|
|-(3)--------------|-------3-------3-|-(3)--------------|---------------5-|
|------------------|-----------------|------------------|---------3-2-0---|
|------1-1-1-1-1-1-|-1-1-1---1-1-1---|------1-1-1-1-1-1-|-1-0-1-3---------|


       PM----------------|   PM|
|------------------|-----------------|------------------|-----------------|
|------------------|-----------------|------------------|-----------------|
|-(5)--------------|-------5-----5-4-|-(4)--------------|-------5---4---3-|
|-(5)--------------|-------5-----5-5-|-(5)--------------|-------5---5---3-|
|------0-0-0-0-0-0-|-0-0-0---0-0-----|------------------|-----------------|
|------------------|-----------------|------3-3-3-3-3-3-|-3-3-3---x---x---|


                                                         1.
                                        To Coda
|------------------|--------------------|-------------||---------------||
|------------------|--------------------|-------------||--------------o||
|-(3)--------------|-------3----------5-|--(5)--------||-5\-----x-x-2--||
|-(3)--------------|-------3----------3-|--(3)--------||-3\-----x-x-2--||
|------------------|--------------------|-------------||--------------o||
|------1-1-1-1-1-1-|-1-1-1----1--1-1----|-------------||---------------||
|
| Gtr III
|                                           ~~~~
|------------------|--------------------|-------------||---------------||
|------------------|--------------------|-------------||--------------o||
|-(3)--------------|-------3-(3)S====10-|-(10)--------||-5\-----x-x-2--||
|-(3)--------------|-------3-(3)S====10-|-(10)--------||-3\-----x-x-2--||
|------------------|--------------------|-------------||--------------o||
|------1-1-1-1-1-1-|-1-1-1--------------|-------------||---------------||


                       Bridge
                    2Q=172
                     Gtr I
|--------------------||------0-----0-----|------0-----0-----|--------------|
|-x\-----------------||----------0-------|----------0-------|--------------|
|-x\-x\--------------||--------6-----6---|--------6-----6-6-|-(6)-------4--|
|----x\-x\-x\--------||------------------|----------------6-|-(6)-------4--|
|----------------/4--||-(4)------------0-|-(0)--------------|-----------2--|
|--------------------||------------------|----------------6-|-(6)----------|
|
|                    Gtrs III, IV
|--------------------||------------------|------------------|--------------|
|--------------------||------------------|------------------|--------------|
|-x\-x\--------------||------------------|----------------6-|-(6)-------4--|
|-x\-x\-x\--------6--||-(6)--------------|----------------6-|-(6)-------4--|
|----------x\-----4--||-(4)------------7-|-(7)--------------|-----------2--|
|--------------------||----------------5-|-(5)------------6-|-(6)----------|


|-------------|------0-----0-----|------0-----0-----|-------------|
|-------------|----------0-------|----------0-------|-------------|
|-(4)---------|--------6-----6---|--------6-----6-6-|-(6)-------4-|
|-(4)---------|------------------|----------------6-|-(6)-------4-|
|-(2)-------4-|-(4)------------0-|-(0)--------------|-----------2-|
|-------------|------------------|----------------6-|-(6)---------|
|
|-------------|------------------|------------------|-------------|
|-------------|------------------|------------------|-------------|
|-(4)---------|------------------|----------------6-|-(6)-------4-|
|-(4)-------6-|-(6)--------------|----------------6-|-(6)-------4-|
|-(2)-------4-|-(4)------------7-|-(7)--------------|-----------2-|
|-------------|----------------5-|-(5)------------6-|-(6)---------|


|-----------------|------0-----0-----|------0-----0-----|----------------|
|-----------------|----------0-------|----------0-------|----------------|
|-(4)---6-(6)-----|--------6-----6---|--------6-----6---|------6----6--4-|
|-(4)-------------|------------------|----------------6-|-(6)-------6--4-|
|-(2)---6-(6)---4-|-(4)------------0-|--0---------------|--------------2-|
|-----------------|------------------|----------------6-|-(6)-----6------|
|
|-----------------|------------------|------------------|----------------|
|-----------------|------------------|------------------|----------------|
|-(4)-------------|------------------|----------------6-|-(6)----------4-|
|-(4)---6-(6)---6-|-(6)------------7-|-(7)------------6-|-(6)----------4-|
|-(2)---6-(6)---6-|-(6)------------7-|-(7)--------------|--------------2-|
|-------4-(4)---4-|-(4)------------5-|-(5)------------6-|-(6)------------|


|------------------|------0-----0-----|------0-----0-----|----------------|
|------------------|----------0-------|----------0-------|----------------|
|-(4)--(4)----4----|--------6-----6---|--------6-----6-6-|-(6)------------|
|-(4)--(4)----4----|------------------|----------------6-|-(6)------------|
|-(2)-------2----4-|-(4)------------0-|-(0)--------------|----------------|
|------------------|------------------|----------------6-|-(6)------------|
|
|------------------|------------------|------------------|----------------|
|------------------|------------------|------------------|----------------|
|-(4)------------6-|-(6)--------------|----------------6-|-(6)-------(6)\-|
|-(4)------------6-|-(6)------------7-|-(7)------------6-|-(6)-------(6)\-|
|-(2)------------4-|-(4)------------7-|-(7)--------------|----------------|
|------------------|----------------5-|-(5)------------6-|-(6)-------(6)\-|


 Guitar Solo
  Q=176
  Gtr V
|-----------------|-19--17-19-17-16---17-16--------------------|
|----2S========16-|-------------------------19p==17-19-17s==14-|
|-----------------|--------------------------------------------|
|-----------------|--------------------------------------------|
|-----------------|--------------------------------------------|
|-----------------|--------------------------------------------|
|
| Gtrs III, IV
|                              PM-------------------------------
|-----------------|--------------------------------------------|
|-----------------|--------------------------------------------|
|------------2----|-(2)----------------------------------------|
|-9-----6\---2----|-(2)----------------------------------------|
|-9-----6\--------|--------------------------------------------|
|-7-----4\--------|------------2----2-----2----2-----2----2----|


|---------------------------------------------|
|-16p14------14-------------------------------|
|---------16----17p==16p14--------------------|
|--------------------------16---14------------|
|----------------------------------16-15---14-|
|---------------------------------------------|
|
|----------------------------------|
|---------------------------------------------|
|---------------------------------------------|
|----------------------------------------2----|
|----------------------------------------2----|
|---------------------------------------------|
|--2----2-----2----2-----2----2-----2---------|


|---------------------------------------------|
|---------------------------------------------|
|---------------------------------------------|
|-12------------------------------------------|
|--x--(13)S14-16p14p12-14p12----12-14b15r(14)-|
|----------------------------14---------------|
|
|---------------------------------------------|
|---------------------------------------------|
|-(2)--------------------------------------1--|
|-(2)--------------------------------------2--|
|---------------------------------------------|
|---------------------------------------------|


    ~~~~                                     ~~
|----------------------------|-----------------------------|
|----------------------------|-----------------------------|
|-------------------------14-|-(14)-14b14.5----------14-16-|
|-------------------14-16----|--------------16-------------|
|-(14)---(12)h14S16----------|-----------------------------|
|----------------------------|-----------------------------|
|
|                                            PM---------|
|----------------------------|-----------------------------|
|----------------------------|-----------------------------|
|--(1)---------------------2-|--(2)------------------------|
|--(2)---------------------2-|--(2)------------------------|
|----------------------------|-----------------------------|
|----------------------------|---------------2-2-2-2--2--2-|


|---------------------------------------------|
|---------------------------------------------|
|-16b18r(16)-(16)-16--------------------------|
|--------------------14---16-16p14-18-x-18p14-|
|---------------------------------------------|
|---------------------------------------------|
|
|  PM------------------------------|
|---------------------------------------------|
|---------------------------------------------|
|----------------------------------------2----|
|----------------------------------------2----|
|---------------------------------------------|
|--2------2----2---2----2-----2-----2---------|


                                      ~~~~
|--------------------------|------------------------|
|--------------------------|------------------------|
|-16-----------------------|----------------18---x--|
|-----14----16-14----------|-------------------x----|
|--------16-------16-14----|-14S=16-(16)------------|
|-----------------------17-|------------------------|
|
|--------------------------|------------------------|
|--------------------------|------------------------|
|-(2)--------------------2-|-(2)---------------2----|
|-(2)--------------------2-|-(2)---------------2----|
|--------------------------|------------------------|
|--------------------------|------------------------|


|----------------------------------------|
|----------------------------------------|
|-16---16-14h16p==14---------------------|
|--------------------16p14------16----16p|
|----------------------------16----------|
|----------------------------------------|
|
|          PM---------------------------- 
|----------------------------------------|
|----------------------------------------|
|-(2)------------------------------------|
|-(2)------------------------------------|
|----------------------------------------|
|----------2----2-----2----2-----2--2----|

|---------------------------------------------|
|---------------------------------------------|
|-----------------------14---------16p14------|
|=14------14h16p14---16----16p==14---------16-|
|----16---------------------------------------|
|---------------------------------------------|
|
|-----------------------------------|
|---------------------------------------------|
|---------------------------------------------|
|----------------------------------------2----|
|----------------------------------------2----|
|---------------------------------------------|
|--2----2-----2----2-----2----2-----2---------|

|--------------------------------------------|
|-----------------------14-------17p14---17--|
|-18p=14-17p14-16-14-17----17p14-------------|
|--------------------------------------------|
|--------------------------------------------|
|--------------------------------------------|
|
|--------------------------------------------|
|--------------------------------------------|
|-(2)----------------------------------1-----|
|-(2)----------------------------------2-----|
|--------------------------------------------|
|--------------------------------------------|


                                                         ~~~~
|-------------------------------------|-14---------------------14-------|
|-19p=17-19p17p14----16-14------------|-----17b19r(17)-(17)-------17-14-|
|-----------------16-------17p14---17-|---------------------------------|
|-------------------------------------|---------------------------------|
|-------------------------------------|---------------------------------|
|-------------------------------------|---------------------------------|
|
|-------------------------------------|---------------------------------|
|--------------------------------3----|-(3)-----------------------------|
|-(1)----------------------------2----|-(2)-----------------------------|
|-(2)-----------------------x----0----|-(0)-----------------------------|
|-------------------------------------|---------------------------------|
|-------------------------------------|---------------------------------|


|-17p=(14)-17-16----14------------14------19b21===|
|----------------17----17p14---17----14-----------|
|-------------------------------------------------|
|-------------------------------------------------|
|-------------------------------------------------|
|-------------------------------------------------|
|
|-------------------------------------------------|
|-(3)---------------------------------------------|
|-(2)---------------------------------------------|
|-(0)-----------------------------------2---------|
|-----------------------5----5-----5----0---------|
|-------------------------------------------------|


                                          D.S. al Coda
|-(19)b21=========|=(19)-----19pb21r(19)p17------------||
|-----------------|-------------------------19b22-(19)-||
|-----------------|------------------------------------||
|-----------------|------------------------------------||
|-----------------|------------------------------------||
|-----------------|------------------------------------||
|
|-----------------|------------------------------------||
|-----------------|------------------------------------||
|-----------------|---------------------------------2--||
|--(2)------------|---------------------------------2--||
|--(0)------------|---0--x-x--2------(2)---------------||
|-----------------|-----------0------(0)---------------||


 Guitar Interlude
  &
  Gtrs III, IV
     PM----------------|   PM|            PM----------------|
|----------------|-----------------|------------------|-----------------|
|----------------|-----------------|------------------|-----------------|
|-5--------------|-------5-----5-4-|-(4)--------------|-------5---4---3-|
|-5--------------|-------5-----5-5-|-(5)--------------|-------5---4---3-|
|----0-0-0-0-0-0-|-0-0-0---0-0-----|------0-0-0-0-0-0-|-0-0-0---x---x---|
|----------------|-----------------|------------------|-----------------|


       PM----------------|   PM--|          PM--------|           PM--|
|------------------|-----------------|------------------|-----------------|
|------------------|-----------------|------------------|-----------------|
|-(3)--------------|-------3-------2-|-(2)--------------|---------------5-|
|-(3)--------------|-------3-------3-|-(3)--------------|---------------5-|
|------------------|-----------------|------------------|---------3-2-0---|
|------1-1-1-1-1-1-|-1-1-1---1-1-1---|------1-1-1-1-1-1-|-1-0-1-3---------|


 Out-Chorus
  Gtrs III, IV
       PM----------------|   PM|            PM----------------|
|------------------|-----------------|------------------|-----------------|
|------------------|-----------------|------------------|-----------------|
|-(5)--------------|-------5-----5-4-|-(4)--------------|-------5---4---3-|
|-(5)--------------|-------5-----5-5-|-(5)--------------|-------5---4---3-|
|------0-0-0-0-0-0-|-0-0-0---0-0-----|------0-0-0-0-0-0-|-0-0-0---x---x---|
|------------------|-----------------|------------------|-----------------|


  Gtr V
|--------10-----------------------|-------------------------------|
|-13b15-----13p==10-13-10s==5-6-5-|-6-----------------------------|
|---------------------------------|---(5)-7p5-----7p5---7p5-------|
|---------------------------------|-------------7-----------7p==5-|
|---------------------------------|-------------------------------|
|---------------------------------|-------------------------------|
|
| Gtrs III, IV
|         PM------------------------------|       PM------|
|---------------------------------|-------------------------------|
|---------------------------------|-------------------------------|
|-(3)-----------------------------|-----------3---------------2---|
|-(3)-----------------------------|-----------3---------------3---|
|---------------------------------|-------------------------------|
|---------1----1-----1----1---1-1-|-1--1--1-------1---1---1-------|


                                ~
|-----------------------------|-------------------||
|-----------------------------|-------------------||
|--5--------------------------|-------------------||
|-----7p5---------------------|-------------------||
|---------7s5p==3-5p3-----3-5S|=7-----------------||
|-----------------------5-----|-------------------||
|
|         PM----------------|           PM--|
|-----------------------------|-------------------||
|-----------------------------|-------------------||
|-(2)-------------------------|---------------5---||
|-(3)-------------------------|---------------5---||
|-----------------------------|---------3-2-0-----||
|---------1---1---1---1---1-1-|-1-0-1-3-----------||


|------------------|-----------------|
|------------------|-----------------|
|------------------|-----------------|
|------------------|-----------------|
|------------------|-----------------|
|------------------|-----------------|
|
| Gtrs III, IV
|      PM----------------|   PM|
|------------------|-----------------|
|------------------|-----------------|
|-(5)--------------|-------5-----5-4-|
|-(5)--------------|-------5-----5-5-|
|------0-0-0-0-0-0-|-0-0-0---0-0-----|
|------------------|-----------------|


                     Gtr V
                      ~~~~~~~~~~~~~~~~
|------------------|------------------------|
|------------------|-20b22-------(20)-------|
|------------------|------------------------|
|------------------|------------------------|
|------------------|------------------------|
|------------------|------------------------|
|
|      PM--------------------|
|------------------|------------------------|
|------------------|------------------------|
|-(4)--------------|-----------5------4---3-|
|-(5)--------------|-----------5------4---3-|
|------0-0-0-0-0-0-|--0----0-0-----x----x---|
|------------------|------------------------|


                            ~~
|--------10---------------------|---------------------------------|
|-13b15-------13b13.5-(13)-15---|-(15)-13b13.5-----15b15.5---13---|
|-------------------------------|---------------------------------|
|-------------------------------|---------------------------------|
|-------------------------------|---------------------------------|
|-------------------------------|---------------------------------|
|
|         PM-----------------------------------|    PM-------|
|-------------------------------|---------------------------------|
|-------------------------------|---------------------------------|
|-(3)---------------------------|----------------3--------------2-|
|-(3)---------------------------|----------------3--------------3-|
|-------------------------------|---------------------------------|
|---------1-1--1--------1---1-1-|---1---1------1----1------1--1---|


|----------------------------------|----------------------|
|-15b15.5--13b13.5-(13)------------|----------------------|
|-------------------------14-12----|------------------5---|
|-------------------------------14p|=12-10-12-14-12-----7-|
|----------------------------------|----------------------|
|----------------------------------|----------------------|
|
|           PM------------------|                 PM--|
|----------------------------------|----------------------|
|----------------------------------|----------------------|
|-(2)------------------------------|--------------------5-|
|-(3)------------------------------|--------------------5-|
|----------------------------------|--------------3-2-0---|
|-----------1--------1--1--1--1--1-|--1--0--1--3----------|


 Outro
                           PM|
|--------------------|------------------|
|--7p=5---5------7p5-|-7p5-----7p5---5--|
|--7p=5---5\-x-x-7p5-|-7p5-4---7p5---5\-|
|-------x------x-----|-------5-----x----|
|--------------------|------------------|
|--------------------|------------------|
|
| Gtrs III, IV
|       PM-----------------|   PM|
|--------------------|------------------|
|--------------------|------------------|
|-(5)----------------|-------5-----5-4--|
|-(5)----------------|-------5-----5-5--|
|-------0-0--0-0-0-0-|-0-0-0---0-0------|
|--------------------|------------------|


                         PM|           PM
|----------------------|-----------------|
|-----5h(7)---7p5------|-----7p5-7p5-----|
|--x--5h=7----7p5-x-5\-|-4---7p5-7p5-----|
|-----------x-----x----|---5---------x-5-|
|----------------------|-----------------|
|----------------------|-----------------|
|
|        PM------------------|
|----------------------|-----------------|
|----------------------|-----------------|
|-(4)------------------|-------5---4---3-|
|-(5)------------------|-------5---4---3-|
|--------0--0-0-0-0-0--|-0-0-0---x---x---|
|----------------------|-----------------|


             PM|
|--------------------|-----------------|
|--7p=5---5------7p5-|---------xpx---5-|
|--7p=5---5\-x---7p5-|---5p4---xpx---5-|
|-------x------5-----|-x-----7-----x---|
|--------------------|-----------------|
|--------------------|-----------------|
|
|       PM-----------------|   PM--|
|--------------------|-----------------|
|--------------------|-----------------|
|-(3)----------------|-------3-------2-|
|-(3)----------------|-------3-------3-|
|--------------------|-----------------|
|-------1-1--1-1-1-1-|-1-1-1---1-1-1---|


   ~~~
|------------------|-----------14--------------------------|
|-(5)--------------|--------------17b19-(17)-(17)-17b19.5--|
|-(5)--------------|---------------------------------------|
|--------------7p5-|-(5)-----------------------------------|
|------------------|---------------------------------------|
|------------------|---------------------------------------|
|
|      PM--------|              PM-----------|
|------------------|---------------------------------------|
|------------------|---------------------------------------|
|-(2)--------------|-------------------------------5-------|
|-(3)--------------|-------------------------------5-------|
|------------------|------------3--2-----------0-----------|
|------1-1-1-1-1-1-|--1--0-1-3-----------------------------|


              ~~~~
|----------------------14--------|15----15p14------14--------------------14|
|-(17)-(17)-(17)----------17---14|------------17------17p14------14-17-----|
|--------------------------------|----------------------------18-----------|
|--------------------------------|-----------------------------------------|
|--------------------------------|-----------------------------------------|
|--------------------------------|-----------------------------------------|
|
| Gtrs III, IV
|             PM---------------------------|           PM---|
|--------------------------------|-----------------------------------------|
|--------------------------------|-----------------------------------------|
|--(5)---------------------------|---------------5----------------5----4---|
|--(5)---------------------------|---------------5----------------5----5---|
|-------------0--0-0-0--0----0---|-0--0-----0----------0----0--------------|
|--------------------------------|-----------------------------------------|


|-------------------------------------------|-----------------------------*|
|-17p=14----17p14-----------------14--------|-----------------------------*|
|--------18---------14-17p14---------17p==14|17p14------17p14-------------*|
|------------------------------17-----------|--------17---------17-(17)---*|
|-------------------------------------------|-----------------------------*|
|-------------------------------------------|-----------------------------*|
|
|            PM-----------------------------------------|
|-------------------------------------------|-----------------------------*|
|-------------------------------------------|-----------------------------*|
|-(4)---------------------------------------|-----------------5-----4---3-*|
|-(5)---------------------------------------|-----------------5-----4---3-*|
|------------0----0-----0----0-----0----0---|-0----0-----0-------x----x---*|
|-------------------------------------------|-----------------------------*|
HAVE FUN





Comments


Popular Ratt tabs & chords
Im Insane Bass Tabs
Lack Of Communication Bass Tabs
Round And Round Bass Tabs
Scene Of The Crime Bass Tabs
Tell The World Bass Tabs
Givin Yourself Away Chords
Dangerous But Worth The Risk Intro Tabs
Lay It Down 5 Tabs
Morning After Intro Tabs
Round N Round Tabs


Song lyrics



↑ Back to top | Tablatures and chords are parodies/interpretations of the original songs. You may use it for private study, scholarship, research or language learning purposes only
© 2014 AZChords.com Contact us | Privacy policy | DMCA | Add/correct tabs | Request tabs | Top 50 tabs