» » »

Best Of Me Tabs (ver.1)

Artists:  A B C D E F G H I J K L M N O P Q R S T U V W X Y Z # 

Best Of Me Tabs (ver.1)

Ratt
Rating:
5/5 (5 votes)

Hard to play? Try these video lessons and learn fast.
                (Intro)

Tuning:  1/2 step down

e|---------------------------------------------------------------------------|
B|--9-------7-------10-9--7-------8-----------7------------------------------|
G|--9-------8-------9--9--8-------7-----------7------------------------------|
D|--9-------9-------9--9--9-------7-----------7------------------------------|
A|--7------------------------------------------------------------------------|
E|-----0-0-----0-0-----------0-0-----0-0-0-0-----0-0-0-0-0-0-0---------------|

e|---------------------------------------------------------------------------|
B|--9-------7-------10-9--7-------8--7--8--7--8--7--8--10--------------------|
G|--9-------8-------9--9--8-------7--7--7--7--7--7--7--9---------------------|
D|--9-------9-------9--9--9-------7--7--7--7--7--7--7--9---------------------|
A|--7------------------------------------------------------------------------|
E|-----0-0-----0-0-----------0-0---------------------------------------------|

e|--16----17----16----14-----------15----14----------------------------------|
B|---------------------------17----------------------------------------------|
G|---------------------------------------------------------------------------|
D|---------------------------------------------------------------------------|
A|---------------------------------------------------------------------------|
E|---------------------------------------------------------------------------|

e|--16----17----16-----14-----------15----19----17---------------------------|
B|---------------------------17----------------------------------------------|
G|---------------------------------------------------------------------------|
D|---------------------------------------------------------------------------|
A|---------------------------------------------------------------------------|
E|---------------------------------------------------------------------------|

 Thanks a million!
            
Hard to play? Try these video lessons and learn fast. | Correct




comments powered by Disqus
↑ Back to top | Tablatures and chords are parodies/interpretations of the original songs. You may use it for private study, scholarship, research or language learning purposes only