» » »

Ratm, Warwith Tabs (ver.1)

Artists:  A B C D E F G H I J K L M N O P Q R S T U V W X Y Z # 

Warwith Tabs (ver.1)

Ratm Tabs
 Rating:
4/5 (4 votes)
Warwith lessons Tabs too difficult? Try these video lessons and learn fast
1
                war within a breath
ratm
battle of los angeles
drop Db
Db Ab Db Gb Bb 
Eb
*=natural harmonics

verses: 
fig1.x12

Eb----------------------------------------
Bb-10~~~~~~------------10~~~~~~~~---------
Gb-x~~~~~~~------------x~~~~~~~~~---------
Db-12~~~~~~----8-------12~~~~~~~~----8----
Ab----------------------------------------
Db----------------------------------------
 
   w/bar       *       w/bar         *  

pre chorus: 
x2

Eb------------------------------------------
Bb------------------------------------------
Gb--------14-----14----------13-----13------
Db-12--12------12--12-12--12------12--12----
Ab------------------------------------------
Db------------------------------------------ 
       


Eb------------------------------------------
Bb------------------------------------------
Gb--------12-----12----------11-----11------
Db-12--12------12--12-12--12------12--12----
Ab------------------------------------------
Db------------------------------------------

chorus: 
x8

Db--------------------------
Ab--------------3---5-------
Db-0----3----5---------3----
Eb-x-x-x-x-x-x-x-x-x-x-x-x-x-x-x-x----
Bb-x-x-x-x-x-x-x-x-x-x-x-x-x-x-x-x----
Gb-x-x-x-x-x-x-x-x-x-x-x-x-x-x-x-x----
Db-x-x-x-x-x-x-x-x-x-x-x-x-x-x-x-x----
Ab-x-x-x-x-x-x-x-x-x-x-x-x-x-x-x-x----
Db-x-x-x-x-x-x-x-x-x-x-x-x-x-x-x-x----

bridge:

Eb-----------------------------------
Bb-----------------------------------
Gb-0-----2-2-2----2--4-4-4--4-4--4---
Db-0-----0-0-0----0--0-0-0--0-0--0---
Ab-0-----0-0-0----0--0-0-0--0-0--0---
Db-0---------------------------------

Eb-----------------------------------
Bb-----------------------------------
Gb-6--6-6-6-6-6--2-2---4--2-2-2--2---
Db-0--0-0-0-0-0--0-0---0--0-0-0--0---
Ab-0--0-0-0-0-0--0-0---0--0-0-0--0---
Db-----------------------------------

outro: 
chorus w/

Eb--------------
Bb-10~~~~-------
Gb-x~~~~~-------  
x16
Db-12~~~~-------
Ab--------------
Db---------0----

trevor 
jones
            
Submit corrections

comments powered by Disqus
↑ Back to top | Ratm Tabs for Warwith. Lyrics for acoustic guitar and electric guitar. 1 Tablatures and chords are parodies/interpretations of the original songs. You may use it for private study, scholarship, research or language learning purposes only