>
 >
Testify

Testify Guitar Tabs

Ratm - Testify chords, tabs, tablatures, lyrics

Guitar lessons | Add/correct | Request | Top 50 tabs Artists:  A B C D E F G H I J K L M N O P Q R S T U V W X Y Z 0-9

Testify Guitar Tabs – Ratm

CD, Sheet music, Poster

Do you like Testify? Share with your friends now
Tabs
testify
rage against the machine
battle of los angeles
drop d tuning

riff 
a: w/ wah,slap back delay,and heavy reverb
sweep wah back and forth. 
x8

D------------------------------------------------:||
A---3-3-3-3-3-3-3-3-3-3-3-3-3-3-3-3---:||
D---0-0-0-0-0-0-0-0-0-0-0-0-0-0-0-0---:||

fig.1

E-----------------------------------------------------
B----6-----------------------------------------------
G----5-----------------------------------------------
D----x------------------------------------------------
A----5---------------3---------5p3-x--0-----------
D---------3h5-0----------0---------x-0-5p3-----

E--------------------------------------------------------
B----6-----------------------------------------12b----
G----5-----------------------------------------12b----
D----x---------------------------------------------------
A----5----------0-----10-------5p3-x-0--------------
D---------3h5-0-7--10---0---------x-0--------------

verses 
riff a x16
chorus-fig.1 x 2

Bridge: 
x8

E-10-x-x10--x-x-10-x-x--10x-x-------
B------x-x-----x-x-----x-x------x-x-------
G--7--x-x-7--x-x--7--x-x--7--x-x-------
D-------------------------------------------

solo:i 
know tom plays this by unplugging the jack
and tapping against the metal 
part on the gtr.
but this is how the book says it.
w/ digitech whammy/wah 
pedal set at gate 
11.x2

E---------5----------5------5-----5-x-x-x-----5--------
B---6---------------------------------x-x-x---------------
G---x------------------------------------------------------
D---x------------5-------5------5-----------5------5----
A---5-------------------------------------------------------
D-----------------------------------------------------------

E---5----------------5-5------5-----5--5-------5-------
B---6------------------------------------------------------
G---x-------------------------------------------------------
D---x----------------------x-5-----5--------x-5------x---
A---5-------------------------------------------------------
D-----------------------------------------------------------

interlude:

G-10------------------5-----------
D-10------------------5-----------
A--8-------------------3----0------ 
     x2
D----------------------------0------

chorus. fig.1 then last 
bar

G--------------------------------
D-12b--12b--12b--12br---
A-12b--12b--12b--12br----
D-12b--12b--12b--12br---

trevor 
jones





Comments


Popular Ratm tabs & chords
Ashes In The Fall Tabs
Ashes In The Fall 1 Tabs
Calm Like A Bomb Tabs
Down Rodeo Tabs
Maria Tabs
Mic Check Tabs
No Shelter Tabs
People Of The Sun Tabs
Wake Up Tabs
Warwith Tabs


Song lyrics



↑ Back to top | Tablatures and chords are parodies/interpretations of the original songs. You may use it for private study, scholarship, research or language learning purposes only
© 2014 AZChords.com Contact us | Privacy policy | DMCA | Add/correct tabs | Request tabs | Top 50 tabs