» » »

Ratm, Sleep Now In The Fire Tabs (ver.2)

Artists:  A B C D E F G H I J K L M N O P Q R S T U V W X Y Z # 

Sleep Now In The Fire Tabs (ver.2)

Ratm Tabs
Rating:
0/5 (0 votes)
Sleep Now In The Fire lessons Tabs too difficult? Try these video lessons and learn fast
                Now In The Fire, 11/2/1999

S2: Another great Rage song f/ their latest effort (they are all
great..) Easily the best record to date.. This song is relatively easy
to play, but still cool.. Enjoy and support Rage!

S1: Intro/Main Riff:
e-------------------------------------
B----------------------4--------------
G-2-2-0-2-4b5-2-0-(3x)-6b8-r7-5-6b7-5-
D-------------------------------------
A-------------------------------------
E-------------------------------------

Verse:
e---5------
B---5------
G----------
D----------
A----------
E----------
w/ effect;
listen to cd for timing

Solo (w/ whammy pedal, possibly more effects):
e-17-17-15-15-17-15-17-15-15-17-(3x)
B-------------------------------
G-------------------------------
D-------------------------------
A-------------------------------
E-------------------------------

e-15-17-15-17-------------------(2x)
B------------16b17r16b17*-------
G-------------------------------
D-------------------------------
A-------------------------------
E-------------------------------
*=Do rapidly; listen to cd

e-15-17-15-17----17-15-15-17-15-17-15-15-17-------
B-------------16----------------------------------
G-------------------------------------------------
D-------------------------------------------------
A-------------------------------------------12vvvv
E-------------------------------------------------



Lyrics:
(Based on those from ratm.net)

yeah!

the world is my expense
the cost of my desire
jesus blessed me with his future
and i protect it with fire
so raise your fists and march around
just don't take what you need
i'll jail and bury those committed
and smother the rest in greed
crawl with me into tomorrow
i'll drag you to your grave
i'm deep inside your children
number 20 with my name

Chorus:
hey!
hey!
sleep now in the fire
(2x)

you anger's my expense
its scoped with my desire
the party blessed me with its future
and i protect it with fire
i am the nina, the pinta, the santa maria
the noose and the rapist, the fields' overseer
the agents my folidge the priest of hiroshima
the cost of my desire
sleep now in the fire

Chorus
(2x)

for it's the end of history
it's caged and frozen still
there is no other pill to take
so swallow the one that makes you ill
the nina, the pinta, the santa maria
the noose and the rapist, the fields' overseer
the agents my folidge the priest of hiroshima
the cost of my desire
sleep now in the fire

YEAH!

Solo

sleep now in the fire!
sleep now in the fire!
sleep now in the fire!
sleep now in the fire!
            

comments powered by Disqus
↑ Back to top | Ratm Tabs for Sleep Now In The Fire. Lyrics for acoustic guitar and electric guitar. Tablatures and chords are parodies/interpretations of the original songs. You may use it for private study, scholarship, research or language learning purposes only