» » »

Rag Rad Tabs (ver.1)

Artists:  A B C D E F G H I J K L M N O P Q R S T U V W X Y Z # 

Rag Rad Tabs (ver.1)

Ratm
Rating:
0/5 (0 votes)

Hard to play? Try these video lessons and learn fast.
                This is my first tab, so take it easy on me, K? 

   This sounds damn close, if not exactly like the actual version. 
   You will need a Digitech Whammy Pedal to do the solo 

   -|---------------------|-8x--------------------------------------------------- 
   -|---------------------|------------------------------------------------------ 
   -|---------------------|------------------------------------------------------ 
   -|---------------------|------------------------------------------------------ 
   -|-----------------0-2-|------------------------------------------------------ 
   -|-0-2-2--0-2-0-2------|------------------------------------------------------ 
   Use the toggle switch for this part in 16th note rythym 

   -|---------------------|-7x-|------------------|------------------------------ 
   -|---------------------|----|------------------|------------------------------ 
   -|---------------------|----|-2-------1--------|------------------------------ 
   -|---------------------|----|------------------|------------------------------ 
   -|-----------------0-2-|----|------------------|------------------------------ 
   -|-0-2-2--0-2-0-2------|----|---2---0---2---0--|------------------------------ 
   * without toggle 

   -|----------------------------|--8x------------------------------------------- 
   -|----------------------------|----------------------------------------------- 
   -|----------------------------|----------------------------------------------- 
   -|----------------------------|----------------------------------------------- 
   -|----------------------------|----------------------------------------------- 
   -|-0-2--0-0-2--0-0-2--0-0-2--0|----------------------------------------------- 
   CHORUS 

   -|--------------------|-8x---------------------------------------------------- 
   -|--------------------|------------------------------------------------------- 
   -|--------------------|------------------------------------------------------- 
   -|--------------------|------------------------------------------------------- 
   -|----------------0-2-|------------------------------------------------------- 
   -|-0-2-2--0-2-0-2-----|------------------------------------------------------- 
   SOLO w/harmonizer (Whammy pedal) 

   -|-----------------|----------------|----------------|----------------|------- 
   -|-----------------|----------------|----------------|----------------|------- 
   -|---------------2-|---------------2|---------------2|-4--------------|------- 
   -|-4---2-4---2-4---|-4---2-4---2-4--|-4---2-4---2-4--|----------------|------- 
   -|-----------------|----------------|----------------|---------------0|------- 
   -|-----------------|----------------|----------------|---0-----3/13/--|------- 


   -|-----------------------|--------------------|-------------------|----------- 
   -|-----------------------|--------------------|-------------------|----------- 
   -|-4------2-4---4b4r--2--|-4---2-4---4b4r--2--|-4--2-4--4b4r-2-4-2|----------- 
   -|-4------2-4-----------4|-4---2-4-----------4|-4--2-4------------------------ 
   -|-----------------------|--------------------|-------------------|----------- 
   -|-----------------------|--------------------|-------------------|----------- 


   -|-7----6----4----3-|--------------------------------------------------------- 
   -|-7----6----4----3-|--------------------------------------------------------- 
   -|-7----6----4----3-|--------------------------------------------------------- 
   -|------------------|--------------------------------------------------------- 
   -|------------------|--------------------------------------------------------- 
   -|------------------|--------------------------------------------------------- 
   Outro 

   -|----------------------------------|-2x-|----------------------------|------- 
   -|----------------------------------|----|----------------------------|------- 
   -|----------------------------------|----|----------------------------|------- 
   -|----------------------------------|----|------------------xxxx-xxxx-|------- 
   -|-------x-----------------x--------|----|-------x----------xxxx-xxxx-|------- 
   -|-0-2---x---/14\----0-2---x---/14\-|----|-0-2---x---/14\---xxxx-xxxx-|-------
            
Hard to play? Try these video lessons and learn fast. | Correct




comments powered by Disqus
↑ Back to top | Tablatures and chords are parodies/interpretations of the original songs. You may use it for private study, scholarship, research or language learning purposes only