» » »

Ratm, Mic Check Tabs (ver.1)

Artists:  A B C D E F G H I J K L M N O P Q R S T U V W X Y Z # 

Mic Check Tabs (ver.1)

Ratm Tabs
 Rating:
4/5 (4 votes)
Mic Check lessons Tabs too difficult? Try these video lessons and learn fast
1
                mic check
ratm
battle of los angeles

Intro: riff a   w/ delay set at 
quarter note 
regeneration
clean

E-----------14----------16----------14--------------------
B--------14----------14----------14----------14-18--------
G-----14----------14----------14----------14--------------
D--16----------16----------16----------16-----------------
A---------------------------------------------------------
E---------------------------------------------------------

verse 
1+2 riff a x2

chorus:w/ delay. quarteer note regeneration w/ 3 
repeats
slide down strings picking in a 6 note rhythm.
tremolo 
pick

D-----------------------------------------------------
A-----------------------------------------------------
E-16\--------------------16\--------------------------

interlude:

E-0--0--0--0--0--0--0--0--0--0--0--0--0--0--0--0---------
B-5--4--4--4--5--4--4--4--5--4--4--4--5--4--4--4---------
G-x--x--x--x--x--x--x--x--x--x--x--x--x--x--x--x---------
D-4--4--4--4--4--4--4--4--4--4--4--4--4--4--4--4---------
A--------------------------------------------------------
E--------------------------------------------------------

solo: 
1st part
slide allen wrench down strings
while manipulating whammy bar
2nd 
part
quickly wipe sixth strings with right hand
while muting the strings 
with the left hand
pick scr*pe up strings
outro 
chord:

E--16------
B--14------
G--14------
D----------
A----------
E----------

trevor 
jones
            
Submit corrections

comments powered by Disqus
↑ Back to top | Ratm Tabs for Mic Check. Lyrics for acoustic guitar and electric guitar. 1 Tablatures and chords are parodies/interpretations of the original songs. You may use it for private study, scholarship, research or language learning purposes only