» » »

Maria Tabs (ver.1)

Artists:  A B C D E F G H I J K L M N O P Q R S T U V W X Y Z # 

Maria Tabs (ver.1)

Ratm
Rating:
0/5 (0 votes)

Tabs too difficult? Try these video lessons and learn fast.
                maria
ratm
battle of los angeles

intro/verses: x12
w/ whammy pedal set to 
harmonize one step below
w/ delay set for quarternote regeneration
w/ 
infinite 
repeats

E----------------------------------------------
B-21~~~~~~~~~~~~~~~~~~~~~~~~~~~~~~~~~~~~~~~----
G----------------------------------------------
D----------------------------------------------
A----------------------------------------------
E----------------------------------------------

pre-chorus: 
whammy/delay off
dip with whammy 
bar

E----------------------------------
B----------------------------------
G---------------------------\/-----
D----------------------------2-----
A----------------------------2-----
E----------------------------0-----
chorus:

E--------------------------------------------------------
B--------------------------------------------------------
G--------------------------------------------------------
D--------------------------------------------------------
A--7-5-7---0-5-2-5--2p0----------------------------------
E----------------------3-5-0--3-0-3--0-5-3-5---0-7-5-7---

E--------------------------------------------------------
B--------------------------------------------------------
G--------------------------------------------------------
D--------------------------------------------------------
A--7-5-7---0-5-2-5--2p0----------------------------------
E----------------------3-5-0--3
-0-3--0-5-3-5---0-0-5-7---
w/ whammy set to harmonize 1 step 
below

E----------------------------------
B----------------------------------
G-------1------------------1-------
D-----2---2---2----------2---2----- 
x4
A---2-------2---2------2-----------
E-0------------------0-------------

E-------------------------------------------
B-------------------------------------------
G---------13------------------------13------
D------14----14----14------------14----14--- 
x4
A---14----------14----14------14------------
E-0-------------------------0---------------

solo
w/ 
whammy pedal set to harmonize 1 step 
below

E-/22-17--0-16-0-16-0-/22-17--0-16-0-16-0-22-17-0-17-0-17-
B---------------------------------------------------------
G---------------------------------------------------------
tremolo 
pick 
all

E-22\-x-22-x-22-x-22-x-x-x-x-22\-x-22\-x-22\-x-x-x-x-x-x--
B---------------------------------------------------------
G---------------------------------------------------------

E----------------------------------------
B-2/4/6-4-4/6/8-6-6/8/10-8-8/10/12-10----
G----------------------------------------

E----------------22--17------22--17--16-17--17----
B-10/12/14-16-18---21--18--18--21--18-------18----
G------------------------18-----------------------
D-------------------------------------------------

outro:lead, 
w/ whammy harmonize 1 step 
below
E---------------------------------
B-19\14-19\14-19\14-19\14-19\14---

trevor 
jones
            
Tabs too difficult? Try these video lessons and learn fast.


comments powered by Disqus
↑ Back to top | Tablatures and chords are parodies/interpretations of the original songs. You may use it for private study, scholarship, research or language learning purposes only