» » »

Fuck The Police Tabs (ver.1)

Artists:  A B C D E F G H I J K L M N O P Q R S T U V W X Y Z # 

Fuck The Police Tabs (ver.1)

Ratm
Rating:
0/5 (0 votes)

Tabs too difficult? Try these video lessons and learn fast.
                yet another cover of NWA's "f**k the Police" when will the covers end? anywho 
it rocks

----------12--11--10--9--8--7--6|---------------------------------------------
--------------------------------|-----------10---8---8---10---------10--8-8---
----------9---8---7---6--5--4--3|---------------------------------------------
--------------------------------|-----------7----5---5---7----------7---5-5---
-5---7--------------------------|---5--7---------------------5--7-------------
-3---5--------------------------|---3--5---------------------3--5-------------
 intro               repeat 2x      verse                                     

---------|--------------------------------------------------------------------
-8--10---|--------------------------------------------------------------------
---------|--------------------------------------------------------------------
-5--7----|--------------------------------------------------------------------
---------|--------------------------------------------------------------------
---------|--------------------------------------------------------------------
             keep repeating those 2 forms. that's all there's is two it.
            
Tabs too difficult? Try these video lessons and learn fast.


comments powered by Disqus
↑ Back to top | Tablatures and chords are parodies/interpretations of the original songs. You may use it for private study, scholarship, research or language learning purposes only