» » »

Born Of A Broken Man Tabs (ver.1)

Artists:  A B C D E F G H I J K L M N O P Q R S T U V W X Y Z # 

Born Of A Broken Man Tabs (ver.1)

Ratm
Rating:
0/5 (0 votes)

Tabs too difficult? Try these video lessons and learn fast.
                100% right!
IN drop D tuning

-------14-14-14-14-14-14-14-1414-13-13-13-13-16-16-16-16-12-12-12-12-16-14-14-
-------0-0-0-0-0-0-0-0-0-0-0-00--0--0--0--0--0--0--0--0--0--0--0--0--0--0---0-
  (clean)   timing is not right but these are definitely the correct notes    

---|---------------------------------------|----------------------------------
---|---------------------------------------|----------------------------------
-14|---------------------------------------|----------------------------------
---|----0----3-0-7-0-3-0-xxxx-3-0-7-0-3-0--|-0000000---10-10/12-0----3-0-7-0--
---|----0----3-0-7-0-3-0-xxxx-3-0-7-0-3-0--|-0000000------------0----3-0-7-0--
---|----0-5b-3-0-7-0-3-0-xxxx-3-0-7-0-3-0--|-0000000------------0-5b-3-0-7-0--
                (distortion)  chorus              solo                        

------|-----------------------------------------------------------------------
------|-----------------------------------------------------------------------
------|-----------------------------------------------------------------------
-3-0--|-----------------------------------------------------------------------
-3-0--|-----------------------------------------------------------------------
-3-0--|-----------------------------------------------------------------------
     THats all enjoy it
            
Tabs too difficult? Try these video lessons and learn fast.




comments powered by Disqus
↑ Back to top | Tablatures and chords are parodies/interpretations of the original songs. You may use it for private study, scholarship, research or language learning purposes only