» » »

Ratatat, Swisha Tabs (ver.2)

Artists:  A B C D E F G H I J K L M N O P Q R S T U V W X Y Z # 

Swisha Tabs (ver.2)

Ratatat Tabs
 Rating:
4/5 (4 votes)
Swisha lessons Tabs too difficult? Try these video lessons and learn fast
1
                STANDARD TUNING
FYI:

(/) Slide Up
(\) Slide Down
(h) Hammer On
(p) Pull Off
(b) Bend
(r) Release
(v) Vibrato

0:00-0:40 *PART A*

E|-----------------------------------------------------------------|
B|----------------------13-----------------------------------------|
G|--12----------10--13------13\10--13--10------13--10------13------|
D|------13--10-----------------------------12----------12------12--|
A|-----------------------------------------------------------------|
E|-----------------------------------------------------------------|

E|-------------|
B|--16-----19--|
G|-------------|
D|--13-----15--|
A|-------------|
E|-------------|

0:40-1:00 *PART B*

E|-----------------------------------------|
B|-----------------------------------------|
G|-----------------------------------------|
D|--15--13--12--10--12--13--12--13/15--13--|
A|-----------------------------------------|
E|-----------------------------------------|

E|-------------------------------|
B|--16\6/11\9----11\4/6--9--8----|
G|-------------------------------|
D|-------------------------------|
A|-------------------------------|
E|-------------------------------|

E|---------------------------------|
B|---------------------------------|
G|---------------------------------|
D|--10--12--13--12--13/15--13--12--|
A|---------------------------------|
E|---------------------------------|

E|------------------|
B|--11\4/6--8--9----|
G|------------------|
D|------------------|
A|------------------|
E|------------------|

1:00-1:42    *PART C*

GUITAR I
E|----------------------------------------------------------------|
B|----------------------------------------------------------------|
G|--8\5/10---8--10--12\8--10---8--10--12\8--10---8--10--12\8--10--|
D|----------------------------------------------------------------|
A|----------------------------------------------------------------|
E|----------------------------------------------------------------|

GUITAR II
E|------------8--10--11\8/13---11--13--15\11--13---11--13--20\11--13--|
B|--------------------------------------------------------------------|
G|--8-\5/10-----------------------------------------------------------|
D|--------------------------------------------------------------------|
A|--------------------------------------------------------------------|
E|--------------------------------------------------------------------|


.::REPEAT PART B::.


1:42-  *PART E*

Basically,
.::REPEAT PART C::.


Comment w/ any corrections!!
GOOD LUCK! :D
Cheers!
            
Submit corrections

comments powered by Disqus
↑ Back to top | Ratatat Tabs for Swisha. Lyrics for acoustic guitar and electric guitar. 1 Tablatures and chords are parodies/interpretations of the original songs. You may use it for private study, scholarship, research or language learning purposes only