» » »

Ratatat, Shempi Tabs (ver.1)

Artists:  A B C D E F G H I J K L M N O P Q R S T U V W X Y Z # 

Shempi Tabs (ver.1)

Ratatat Tabs
 Rating:
4/5 (4 votes)
Shempi lessons Tabs too difficult? Try these video lessons and learn fast
                -------------------------------------------------------------------------------
-------------------------------------------------------------------------------

Tuning: standard




0:24-0:46 (fade in each chord)

e|----------------------------------------------------------|
B|----------------------------------------------------------|
G|--------7---------------7-------------7-------------------|
D|---5----7----------5----7------5--5---7-------------------|
A|---5----5----------5----5------5--5---5-------------------|
E|---3---------------3-----------3--3-----------------------|



e|--------------10---------------------------10-------------|
B|-----------11----------11---------------11----------11----|
G|--------10----------10---------------10----------10-------|
D|--12-12----------12------------12-12----------12----------|
A|----------------------------------------------------------|
E|----------------------------------------------------------|

e|------------10-13--------10--------------10-13--------10--|
B|---------10-----------10--------------10-----------10-----|
G|---10-10-----------10-----------10-10-----------10--------|
D|----------------------------------------------------------|
A|----------------------------------------------------------|
E|----------------------------------------------------------|

     (keyboard part) 1:02-1:34
   e|---17-15-13-15-17---13-15-17-15-13-15-10---17-15-13-15-17--13-15-10-------------------------|
   B|----------------------------------------------------------------------13-15-10---8-10-13-10-|
   G|--------------------------------------------------------------------------------------------|
   D|--------------------------------------------------------------------------------------------|
   A|--------------------------------------------------------------------------------------------|
   E|--------------------------------------------------------------------------------------------|


     e|---18-17-15-13-15-17-13-10---8-10-13-10---(15)------------|
     B|----------------------------------------------------------|
     G|----------------------------------------------------------|
     D|----------------------------------------------------------|
     A|----------------------------------------------------------|
     E|----------------------------------------------------------|

1:34-2:05
e|--15-15/-10/-6-6-6/-10-10/-13-13/-15/-13/-10/-10-10/-5/-5-5/-6------|
B|-----------------------------------------------------------------8--|
G|--12-12/-7/--3-3-3/--7--7/-10-10/-12/-10/--7/--7--7/-2/-2-2/-3------|
D|-----------------------------------------------------------------5--|
A|--------------------------------------------------------------------|
E|--------------------------------------------------------------------|



e|--------------10---------------------------10-------------|
B|-----------11----------11---------------11----------11----|
G|--------10----------10---------------10----------10-------|
D|--12-12----------12------------12-12----------12----------|
A|----------------------------------------------------------|
E|----------------------------------------------------------|

e|------------10-13--------10--------------10-13--------10--|
B|---------10-----------10--------------10-----------10-----|
G|---10-10-----------10-----------10-10-----------10--------|
D|----------------------------------------------------------|
A|----------------------------------------------------------|
E|----------------------------------------------------------|


Outro
e|-----------------------------------------------------|
B|-----------------------------------------------------|
G|---------7-------------------------------------------|
D|----8----7-------------------------------------------|
A|----8----5-------------------------------------------|
E|----6------------------------------------------------|
            
Submit corrections

comments powered by Disqus
↑ Back to top | Ratatat Tabs for Shempi. Lyrics for acoustic guitar and electric guitar. Tablatures and chords are parodies/interpretations of the original songs. You may use it for private study, scholarship, research or language learning purposes only