» » »

Ratatat, Mirando Tabs (ver.1)

Artists:  A B C D E F G H I J K L M N O P Q R S T U V W X Y Z # 

Mirando Tabs (ver.1)

Ratatat Tabs
Rating:
5/5 (2 votes)
Mirando lessons Tabs too difficult? Try these video lessons and learn fast
                
Tuning: Standard (EADGBe)


_________________________

Song Sequence:
Starting from 0:27

Riff 1 X 2
Break till 1:00
Riff 1 X 2
Riff 2 X 2
Riff 1 X 2
Break till 1:53
Riff 3 X 2
Break till 2:35
Riff 4 X 2
Riff 5 X 6
End

__________________________

Riff 1:

(0:27)

e|----------------------------|
B|----------------------------|
G|----------------------------| 
D|--10/6--10/6--10/6--8-------|
A|----------------------------|
E|----------------------------|

And repeat at 1:00

Riff 2:

(1:10)

e|------------------------------------------------------|
B|--9----9----------------------11------11-/-14---------|
G|---10------10----10-------------10--10----------------|
D|-----10------11-----13-11-10------11------------------|
A|---------------13-------------------------------------|
E|------------------------------------------------------|
                                                         
e|------------------------------------------------------|
B|--9----9----------------------11------11-/-14--/--18--|
G|---10------10----10-------------10--10----------------|
D|-----10------11-----13-11-10------11------------------|
A|---------------13-------------------------------------|
E|------------------------------------------------------|

Riff 3: 

(1:53)

e|----------------------------------------------------------------|
B|-----------------14-13-14-/-18-----------------9h11/13-11-/-6---|
G|----------------------------------------------------------------|
D|--11-/-10-/-6--------------------10p8-/-6-----------------------| 
A|----------------------------------------------------------------|
E|----------------------------------------------------------------|


Riff 4:

(2:35)

e|---------------------------------------------|
B|-14-11--------11---13-9----13-9---9-11-------|
G|------12-0-12-----------10------10-----------|
D|---------------------------------------------| 
A|---------------------------------------------|
E|---------------------------------------------|

e|----------------------------13-11------------|
B|-14-11--------11---13-9----------14-13-------|
G|------12-0-12-----------10-------------------|
D|---------------------------------------------| 
A|---------------------------------------------|
E|---------------------------------------------|

Riff 5:

(2:56)

e|-----9--9----------9--9-----------8--8---------8---8-9-------|
B|----9--9--9-----11--11-13-11-----9--9--9-----9--9-11---------|
G|--10-10-10----12-12-----------10-10-10----10-10--------------|
D|-------------------------------------------------------------| 
A|-------------------------------------------------------------|
E|-------------------------------------------------------------|
            

comments powered by Disqus
↑ Back to top | Ratatat Tabs for Mirando. Lyrics for acoustic guitar and electric guitar. Tablatures and chords are parodies/interpretations of the original songs. You may use it for private study, scholarship, research or language learning purposes only