» » »

Ratatat, Breaking Away Tabs (ver.1)

Artists:  A B C D E F G H I J K L M N O P Q R S T U V W X Y Z # 

Breaking Away Tabs (ver.1)

Ratatat Tabs
 Rating:
3.4/5 (5 votes)
Breaking Away lessons Tabs too difficult? Try these video lessons and learn fast
1
                Part 1. 0:05-0:49
e-------------------------------------------------|
B-------------------------------------------------|
G--14------12-------10---------5------------------|
D--12-X4---10-X4----8-X4-------3X4----------------|
A-------------------------------------------------|
E-------------------------------------------------|

Part 2 Starts at 0:50 (this is really a synthesizer but we tabbed it out anyway)
e-----------------------------------------------------|
B-----------------------------------------------------|
G----14X4---12X4--14X4---15X4---15X4--14X4-17X4-15X4--|
D-----------------------------------------------------|
A-----------------------------------------------------|
E-----------------------------------------------------|
Part 3 Guitar Interlude 1:22-1:44
e---------------------------------------------------|
B-------------13------------------------13----------|
G-------12-14----14-12------------12-14----10/12-14-|
D-12-15----------------15---12-15-------------------|
A---------------------------------------------------|
E---------------------------------------------------|
Part 4 1:45-to end (I put all the notes on one string because they are meant to be slid 
and forth or how ever you want to play it)
e-------------------------------------------------|
B-------------------------------------------------|
G--7/14-19/14-17-14-12-17-12-10-------------------|
D-------------------------------------------------|
A-------------------------------------------------|
E-------------------------------------------------|
Part 5 1:45 to end (power chords Starts with a palm mute and gradually increases)
e-------------------------------------------------|
B-------------------------------------------------|
G-----7------10-----------------------------------|
D-----7-X4---10-X4---7-------8--------------------|
A-----5------8-------7--X4---8-X4-----------------|
E--------------------5-------6--------------------|
            
Submit corrections

comments powered by Disqus
↑ Back to top | Ratatat Tabs for Breaking Away. Lyrics for acoustic guitar and electric guitar. 1 Tablatures and chords are parodies/interpretations of the original songs. You may use it for private study, scholarship, research or language learning purposes only