>
 >
Volviendo A Casa

Volviendo A Casa Bass Tabs

Rata Blanca - Volviendo A Casa chords, tabs, tablatures, lyrics

Guitar lessons | Add/correct | Request | Top 50 tabs Artists:  A B C D E F G H I J K L M N O P Q R S T U V W X Y Z 0-9

Volviendo A Casa Bass Tabs – Rata Blanca

CD, Sheet music, Poster

Do you like Volviendo A Casa? Share with your friends now
Bass TabsTabsTabs v2

VOLVIENDO A CASA (Bassline)
As recorded by Rata Blanca
(From the 2002 Album EL CAMINO DEL FUEGO)

	

Words by Walter Giardino Music by Rata Blanca
Arranged by Rata Blanca

Gtr I (E A D G) - 'Bass - Guillermo Sánchez'

 Intro
  Moderate Rock Q=125
       F     G     A                   G
 4/4
  Gtr I
  Q  E E +E  E +E  E   +E  E E E E E E E
|--------------------|-------------------|
|--------------------|-------------------|
|--------------------|-------------------|
|------1-(1)-3-(3)-5-|-(5)-5-5-5-5-5-5-3-|


                  F                   G
  +E  E E E E E E E   +E  E E E E E E E
|-------------------|--------------------|
|-------------------|--------------------|
|-------------------|--------------------|
|-(3)-3-3-3-3-3-3-1-|-(1)-1-1-1-1-1-1-3--|


                  A                   G
  +E  E E E E E E E   +E  E E E E E E E
|-------------------|-------------------|
|-------------------|-------------------|
|-------2-0-5-3-2---|-------------------|
|-(3)-3-----------5-|-(5)-5-5-5-5-5-5-3-|


                  F                   A
  +E  E E E E E E E   +E  E E E E E E E
|-------------------|-------------------||
|-------------------|-------------------||
|-------------------|-------------------||
|-(3)-3-3-3-3-3-3-1-|-(1)-1-1-1-1-1-1-5-||


                          Verse
  A B     C     D                              Bb    A
  E E +E  E +E  E +E  E    Wx7          H    E E +E  E   +E  E E E E E +E  E
|-----------------------||------------|----------------|---------------------|
|-----------------------||------------|----------------|---------------------|
|---2-(2)-3-(3)-5-(5)---||------------|--------1-(1)---|---------------------|
|-5---------------------||------------|--------------5-|-(5)-5-5-5-5-5-(5)-5-|


                  A                                           F             E
  +E  E E E E E E E   +E  E E E E E E E   +E  E E E E E E E   E E E E E E E E
|-------------------|-------------------|-------------------|-----------------|
|-------------------|-------------------|-------------------|---------------2-|
|-------------------|-------------------|-------------------|-----------------|
|-(5)-5-5-5-5-5-5-5-|-(5)-5-5-5-5-5-5-5-|-(5)-5-5-5-5-5-5-5-|-1-1-1-1-1-1-1---|


      D     C     B     F                   D
  +E  E +E  E +E  E +E  E   +E  E E E E E E E
|-------------------------|-------------------||
|-(2)---------------------|-------------------||
|-----5-(5)-3-(3)-2-(2)---|-----------------5-||
|-----------------------1-|-(1)-1-1-1-1-1-1---||


 Bridge
          D         C
  +E  E E E +E  E E E   +E  E E E E E E E
|---------------------|-------------------|
|---------------------|-------------------|
|-(5)-0-3-5-(5)-0-3-3-|-(3)-3-3-3-3-3-3-3-|
|---------------------|-------------------|


  C                 D            D           D         E
  E E E E E E E E   H    +E  E E E   +E  E E E +E  E E E   +E  E E E E E E E
|-----------------|----------------|---------------------|-------------------||
|-----------------|----------------|---------------------|-------------------||
|-3-3-3-3-3-3-0-3-|-5----(5)-0-3-5-|-(5)-0-3-5-(5)-0-3---|-------------------||
|-----------------|----------------|-------------------0-|-(0)-0-0-0-0-0-0-0-||


 Pre-Chorus
  G    F    C        G               G    F    C        G         E
  Q  E Q  E Q    +E  E E E E E E E   Q  E Q  E Q    +E  E E E E E  Q
|--------------|-------------------|--------------|--------------------||
|--------------|-------------------|--------------|--------------------||
|-----------3--|-(3)---------------|-----------3--|-(3)----------------||
|-3--3-1--1----|-----3-3-3-3-3-3-3-|-3--3-1--1----|-----3-3-3-3-3-12\--||


   Chorus
    C          B A                       E          F#G
    Q  E E E E E E   +E  E E E E E E E   Q  E E E E E E   +E  E E E E E E E
||-----------------|-------------------|----------------|--------------------|
||o----------------|-------------------|----------------|--------------------|
||o-3--3-3-3-3-2-0-|-(0)-0-0-0-0-0-0-0-|----------------|--------------------|
||-----------------|-------------------|-0--0-0-0-0-2-3-|-(3)-3-3-3-3-3-3-3--|


  D           Bb              A     G
  Q  E E E Q  E   +E  E E E E E +E  E   +E  E Q  E E E E
|---------------|---------------------|------------------|
|---------------|---------------------|-------5--3-2-----|
|-5--5-5-5-3--1-|-(1)-1-1-1-1-0-(0)---|--------------5---|
|---------------|-------------------3-|-(3)-3----------3-|


 1.                   2.
                       G       F     G     A
  +E  E Q  E E E E     E E  E  E +E  E +E  E
|-------------------||-----------------------||
|-------5--3-2-----o||-----------------------||
|--------------5-2-o||-----------------------||
|-(3)-3-------------||-3-3-17\-1-(1)-3-(3)-5-||


 Interlude
  A               G                   F
  +E  E E E E E E E   +E  E E E E E E E
|-------------------|-------------------|
|-------------------|-------------------|
|-------------------|-------------------|
|-(5)-5-5-5-5-5-5-3-|-(3)-3-3-3-3-3-3-1-|


                  G
  +E  E E E E E E E   +E  E E E E E E E
|-------------------|-------------------|
|-------------------|-------------------|
|-------------------|-------2-0-5-3-2---|
|-(1)-1-1-1-1-1-1-3-|-(3)-3-----------5-|


  A             G                   F
  E E E E E E E E   +E  E E E E E E E
|-----------------|-------------------|
|-----------------|-------------------|
|-----------------|-------------------|
|-5-5-5-5-5-5-5-3-|-(3)-3-3-3-3-3-3-1-|


                  A       B     C     D
  +E  E E E E E E E   +E  E +E  E +E  E +E  E
|-------------------|-------------------------||
|-------------------|-------------------------||
|-------------------|-----2-(2)-3-(3)-5-(5)---||
|-(1)-1-1-1-1-1-1-5-|-(5)---------------------||


 Verse
                      Bb    A                     A
  Wx7          H    E E +E  E   +E  E E E E E +E  E   +E  E E E E E E E
|------------|----------------|---------------------|-------------------|
|------------|----------------|---------------------|-------------------|
|------------|--------1-(1)---|---------------------|-------------------|
|------------|--------------5-|-(5)-5-5-5-5-5-(5)-5-|-(5)-5-5-5-5-5-5-5-|


  A                     A
  +E  E E E +E  E E E   +E  E E E +E  E E E
|---------------------|---------------------|
|---------------------|---------------------|
|---------------------|---------------------|
|-(5)-5-5-5-(5)-5-5-5-|-(5)-5-5-5-(5)-5-5-5-|


  F             E       D     C     B     F
  E E E E E E E E   +E  E +E  E +E  E +E  E
|-----------------|-------------------------|
|---------------2-|-(2)---------------------|
|-----------------|-----5-(5)-3-(3)-2-(2)---|
|-1-1-1-1-1-1-1---|-----------------------1-|


                      Bridge
                  D            D         C
  +E  E E E E E E E    +E  E E E +E  E E E
|-------------------||---------------------|
|-------------------||---------------------|
|-----------------5-||-(5)-0-3-5-(5)-0-3-3-|
|-(1)-1-1-1-1-1-1---||---------------------|


  +E  E E E E E E E   E E E E E E E E
|-------------------|-----------------|
|-------------------|-----------------|
|-(3)-3-3-3-3-3-3-3-|-3-3-3-3-3-3-0-3-|
|-------------------|-----------------|


  D            D           D         E
  H    +E  E E E   +E  E E E +E  E E E   +E  E E E E E E E
|----------------|---------------------|-------------------||
|----------------|---------------------|-------------------||
|-5----(5)-0-3-5-|-(5)-0-3-5-(5)-0-3---|-------------------||
|----------------|-------------------0-|-(0)-0-0-0-0-0-0-0-||


 Pre-Chorus
  G    F    C        G               G    F    C        G         E
  Q  E Q  E Q    +E  E E E E E E E   Q  E Q  E Q    +E  E E E E E  Q
|--------------|-------------------|--------------|--------------------|
|--------------|-------------------|--------------|--------------------|
|-----------3--|-(3)---------------|-----------3--|-(3)----------------|
|-3--3-1--1----|-----3-3-3-3-3-3-3-|-3--3-1--1----|-----3-3-3-3-3-12\--|


   Chorus
    C          B A                       E          F#G
    Q  E E E E E E   +E  E E E E E E E   Q  E E E E E E   +E  E E E E E E E
||-----------------|-------------------|----------------|--------------------|
||o----------------|-------------------|----------------|--------------------|
||o-3--3-3-3-3-2-0-|-(0)-0-0-0-0-0-0-0-|----------------|--------------------|
||-----------------|-------------------|-0--0-0-0-0-2-3-|-(3)-3-3-3-3-3-3-3--|


  D           Bb              A     G
  Q  E E E Q  E   +E  E E E E E +E  E   +E  E E E E E E E
|---------------|---------------------|-------------------|
|---------------|---------------------|-------5---3-2-----|
|-5--5-5-5-3--1-|-(1)-1-1-1-1-0-(0)---|---------------5---|
|---------------|-------------------3-|-(3)-3---3-------3-|


 1.                    2.
  G                     G   A   F     G     A
  +E  E E E E E E E     E E  E  E +E  E +E  E
|--------------------||-----------------------||
|-------5---3-2-----o||-----------------------||
|---------------5-2-o||-----------------------||
|-(3)-3---3----------||-3-3-17\-1-(1)-3-(3)-5-||


 Guitar Solo
  A              G#           G            F#
  +H     H       H    H       H    H       H    H
|--------------|------------|------------|------------|
|--------------|------------|------------|------------|
|--------------|------------|------------|------------|
|-(5)----5\----|-4----4\----|-3----3\----|-2----2\----|


  F                 E                 D                 D         Bb A
  E E E E E E E E   E E E E E E E E   E E E E E E E E   E E E E E Q  E
|-----------------|-----------------|-----------------|----------------|
|-----------------|-----------------|-----------------|----------------|
|-----------------|-----------------|-5-5-5-5-5-5-5-5-|-5-5-5-5-5------|
|-1-1-1-1-1-1-1-1-|-0-0-0-0-0-0-0-0-|-----------------|-----------6--5-|


  A                   G#                G             F#                  F
  +E  E E E E E E E   E E E E E E E E   E E E E E E E E   +E  E E E E E E E
|-------------------|-----------------|-----------------|-------------------|
|-------------------|-----------------|-----------------|-------------------|
|-------------------|-----------------|-----------------|-------------------|
|-(5)-5-5-5-5-5-5-5-|-4-4-4-4-4-4-4-4-|-3-3-3-3-3-3-3-2-|-(2)-2-2-2-2-2-2-1-|


                  E       D     C     B     A
  +E  E E E E E E E   +E  E +E  E +E  E +E  E
|-------------------|-------------------------|
|-------------------|-------------------------|
|-----------------7-|-(7)-5-(5)-3-(3)-2-(2)---|
|-(1)-1-1-1-1-1-1---|-----------------------5-|


                            Bridge
      G     F     E     D            D         C
  +E  E +E  E +E  E +E  E    +E  E E E +E  E E E
|-------------------------||---------------------|
|-------------------------||---------------------|
|-----------------------5-||-(5)-0-3-5-(5)-0-3-3-|
|-(5)-3-(3)-1-(1)-0-(0)---||---------------------|


                                    C   D            D           D         E
  +E  E E E E E E E   E E E E E E E E   H    +E  E E E   +E  E E E +E  E E E
|-------------------|-----------------|----------------|---------------------|
|-------------------|-----------------|----------------|---------------------|
|-(3)-3-3-3-3-3-3-3-|-3-3-3-3-3-3-0-3-|-5----(5)-0-3-5-|-(5)-0-3-5-(5)-0-3---|
|-------------------|-----------------|----------------|-------------------0-|


                       Pre-Chorus
  E                     G    F    C
  +E  E E E E E E E     Q  E Q  E Q
|-------------------||---------------|
|-------------------||o--------------|
|-------------------||o-----------3--|
|-(0)-0-0-0-0-0-0-0-||--3--3-1--1----|


      G                 G    F    C        G         E
  +E  E E E E E E E  3x Q  E Q  E Q    +E  E E E E E  Q
|--------------------||--------------|--------------------|
|-------------------o||--------------|--------------------|
|-(3)---------------o||-----------3--|-(3)----------------|
|-----3-3-3-3-3-3-3--||-3--3-1--1----|-----3-3-3-3-3-12\--|


   Chorus
    C          B A                       E          F#G
    Q  E E E E E E   +E  E E E E E E E   Q  E E E E E E   +E  E E E E E E E
||-----------------|-------------------|----------------|--------------------|
||o----------------|-------------------|----------------|--------------------|
||o-3--3-3-3-3-2-0-|-(0)-0-0-0-0-0-0-0-|----------------|--------------------|
||-----------------|-------------------|-0--0-0-0-0-2-3-|-(3)-3-3-3-3-3-3-3--|


  D           Bb              A     G
  Q  E E E Q  E   +E  E E E E E +E  E   +E  E E E E E E E
|---------------|---------------------|-------------------|
|---------------|---------------------|-------5---3-2-----|
|-5--5-5-5-3--1-|-(1)-1-1-1-1-0-(0)---|---------------5---|
|---------------|-------------------3-|-(3)-3---3-------3-|


 1.,2.                 3.
  G                     G   A   F     G     A
  +E  E E E E E E E  3x E E  E  E +E  E +E  E
|--------------------||-----------------------||
|-------5---3-2-----o||-----------------------||
|---------------5-2-o||-----------------------||
|-(3)-3---3----------||-3-3-17\-1-(1)-3-(3)-5-||


   Outro
    A               G                   F
    +E  E E E E E E E   +E  E E E E E E E
||--------------------|-------------------|
||o-------------------|-------------------|
||o-------------------|-------------------|
||--(5)-5-5-5-5-5-5-3-|-(3)-3-3-3-3-3-3-1-|


                  G
  +E  E E E E E E E   +E  E E E E E E E   3x
|-------------------|---------------------||
|-------------------|--------------------o||
|-------------------|-------2-0-5-3-2----o||
|-(1)-1-1-1-1-1-1-3-|-(3)-3-----------5---||


  A               G                   F
  +E  E E E E E E E   +E  E E E E E E E
|-------------------|-------------------|
|-------------------|-------------------|
|-------------------|-------------------|
|-(5)-5-5-5-5-5-5-3-|-(3)-3-3-3-3-3-3-1-|


                  G       F     E     D     C
  +E  E E E E E E E   +E  E +E  E +E  E +E  E
|-------------------|-------------------------|
|-------------------|-------------------------|
|-------------------|-----------------5-(5)-3-|
|-(1)-1-1-1-1-1-1-3-|-(3)-1-(1)-0-(0)---------|


      B     A     G     G   C A          G A
  +E  E +E  E +E  E +E  E   E E +E  Q.   E E   +W
|-------------------------|------------------|--------*|
|-------------------------|------------------|--------*|
|-(3)-2-(2)---------------|-3----------------|--------*|
|-----------5-(5)-3-(3)-3-|---5-(5)-5----3-5-|-(5)----*|



Duration Legend
---------------
W - whole; H - half; Q - quarter; E - 8th; S - 16th; T - 32nd; X - 64th; a - acciaccatura
+ - note tied to previous; . - note dotted; .. - note double dotted
Uncapitalized letters represent notes that are staccato (1/2 duration)
Irregular groupings are notated above the duration line
Duration letters will always appear directly above the note/fret number it represents the
duration for.  Duration letters with no fret number below them represent rests.  Multi-
bar rests are notated in the form Wxn, where n is the number of bars to rest for.  Low
melody durations appear below the staff

Tablature Legend
----------------
 h   - hammer-on
 p   - pull-off
 b   - bend
 pb  - pre-bend
 r   - bend release (if no number after the r, then release immediately)
 /\  - slide into or out of (from/to "nowhere")
 s   - legato slide
 S   - shift slide
 - natural harmonic
[n]  - artificial harmonic
n(n) - tapped harmonic
 ~   - vibrato
 tr  - trill
 T   - tap
 TP  - trem. picking
 PM  - palm muting
\n/  - tremolo bar dip; n = amount to dip
 \n  - tremolo bar down
 n/  - tremolo bar up
/n\  - tremolo bar inverted dip
 =   - hold bend; also acts as connecting device for hammers/pulls
 <> - volume swell (louder/softer)
 x   - on rhythm slash represents muted slash
 o   - on rhythm slash represents single note slash

Misc Legend
-----------
 |  - bar
||  - double bar
||o - repeat start
o|| - repeat end
*|  - double bar (ending)
 :  - bar (freetime)
 $  - Segno
 &  - Coda
Tempo markers -  = BPM(8/16=s8/s16), where s8 = swing 8ths, s16 = swing 16ths





Comments


Popular Rata Blanca tabs & chords
Cuando La Luz Oscurece Tabs
El Sueno De La Gitana Tabs
Ella Tabs
Hombre De Hielo Tabs
La Danza Del Fuego Tabs
La Llave De La Puerta Secreta 1 Tabs
Madre Tierra Intro Tabs
Otoo Medieval Tabs
Preludio Obsesivo Tabs
Fantasma Azul Ukulele


Song lyrics



↑ Back to top | Tablatures and chords are parodies/interpretations of the original songs. You may use it for private study, scholarship, research or language learning purposes only
© 2014 AZChords.com Contact us | Privacy policy | DMCA | Add/correct tabs | Request tabs | Top 50 tabs