» » »

Otoo Medieval Tabs (ver.1)

Artists:  A B C D E F G H I J K L M N O P Q R S T U V W X Y Z # 

Otoo Medieval Tabs (ver.1)

Rata Blanca
Rating:
0/5 (0 votes)

Hard to play? Try these video lessons and learn fast.
                gran cancion acustica del dios walter giardino
viva la guitarra electrica,malmsteen,slash,carlitos,y el dx....

otoño medieval


e:--5--7--8-----------7--5---------------------------------------------------|
B:-----------5-----5--------6-----5-----6-----5--5-------------------6-------|
G:--------------5--------------7-----7-----7-------------7--5--7--7-----7----|
D:--------------------------0--------------------------7-------0-------------|
A:--------0-----------------------------------0-----0------------------------|
E:---------------------------------------------------------------------------|


e:---------------------------------------------------------------------------|
B:---------------------------------------------------------------------------|
G:--5--4--5-----5-----4-----------------5--4---------------------------------|
D:-----------------------7--6-----6-----------7-----7-7----7-----7--7--------|
A:--------------------------------------------0--0-------0----0--------0-----|
E:--------1--1-----1--------0--0-----0---------------------------------------|


e:--8---10---12----8--10--12------------7----------7---8---10---12---8--10-12|
B:-10---12---13---10--12--13---9---10---9--9---10--9--10---12---13--10--12-13|
G:-----------------------------9----9------9----9----------------------------|
D:---------------------------------------------------------------------------|
A:--0---------0------------0---------------------------0---------0----------0|
E:-----------------------------0--------0----------0-------------------------|


e:----------7---------7-----8---7---5-------------------------4---5—-7--|
B:---9--10--9--9--10--9----10---8---6---5---6---6/8--5--6--5--5---5—-5--|
G:---9---9-----9---9--------------------4---4--------5--5--5------------|   
D:--------------------------0-------------------------------------------|
A:---------------------------------------------------0-----0------------|   
E:---0------0---------0-----------------0---------------------0---------|


e:----8---10---12---8--10--12----7---8--10---7---8--10---8---10---12---8--10-|
B:---10---12---13--10--12--13----9--10--12---9--10--12--10---12---13--10--12-|
G:---------------------------------------------------------------------------|
D:---------------------------------------------------------------------------|
A:----0---------0-----------0----------------------------0---------0---------|
E:-------------------------------0-------0-----------0-----------------------|


e:-12----7---8--10---7---8--10----8---7--5--7--5--4-----5-----7-----8--|
B:-13----9--10--12---9--10--12---10---8--6--8--6--5--5-----5--5--5----5|
G:---------------------------------------------------------------------|     
D:--------------------------------0------------------------------------|
A:--0---------------------------------------------------------0--------|    
E:-------0-------0-----------0--------------------0--------------------|


e:---10---12--13--13-------8--10--12--12------10--12--13--13-------8--10--12-|
B:---12---13--15------15--10--12--13-----13---12--13--15------15--10--12--13-|
G:---------------------------------------------------------------------------|
D:-------------0---------------------------------------0---------------------|
A:---------------------------------0---------------------------------------0-|
E:---------------------------------------------------------------------------|


e:-12-------10--12--13--13-------13----15---17--------7—-5---4-----5------7--|
B:-----13---12--13--15------15---15----17---18--------8--6---5--5-----5---5--|
G:---------------------------------------------------------------------------|     
D:-------------------0-------------------------------------------------------|
A:---------------------------------------------------------------------------|     
E:-----------------------------------------------------------0------------0--|

esta parte es un poco mas rapida

e:--5--7--8///////15///12//10//8//////15///12//10//8//7//5-------------------|
B:---------------------------------------------------------------------------|
G:---------------------------------------------------------------------------|
D:---------------------------------------------------------------------------|
A:---------------------------------------------------------------------------|
E:---------------------------------------------------------------------------|

dekis and draker
            
Hard to play? Try these video lessons and learn fast. | Correct




comments powered by Disqus
↑ Back to top | Tablatures and chords are parodies/interpretations of the original songs. You may use it for private study, scholarship, research or language learning purposes only